Oops, an error
Loading. Please wait.

Drive Tab

version 1
version 1

Whole song

16 views 1 this week
no commentswrite comment
1 2 3 4 5
3 more votes to show rating
add to favorites
launch autoscroll
font size
0
reset
how to read this tab
guitar tuner
Autoscroll
slow
fast
+/-
esc
set tempo
stop
Help us to improve Ultimate-Guitar.com Take our survey!
×
Author
Difficulty
Tuning
novice
D G C F A D
TABBED IN STANDARD D BUT THIS ONE IS PLAYABLE IN STANDARD E

[Intro]
Lead:
D|---5---5---5-252---2-252--2-252---2-252--2-2527-5-252--2-252--2-252--2-2527|
A|-3---3---3------3-------3------3-------3-------------3------3------3-------| 
F|---------------------------------------------------------------------------|
C|---------------------------------------------------------------------------|
G|---------------------------------------------------------------------------|
D|---------------------------------------------------------------------------|

D|-5-252--2-252--2-252--2-252--10-10-10-10-10-10-10-|
A|------3------3------3-------/8--8--8--8--8--8--8--|
F|--------------------------------------------------|
C|--------------------------------------------------|
G|--------------------------------------------------|
D|--------------------------------------------------|

[Verse]
D|--------------------------------------------------------------------------------------|
A|--------------------------------------------------------------------------------------|
F|--7-----7--7-----7--7--7--7--7--7--7--7--7--------------------------------------------|
C|--7-----7--7-----7--7--7--7--7--7--7--7--7-----9-----9-----9--9--9--9--9--9--9--9--9--|
G|--5-----5--5-----5--5--5--5--5--5--5--5--5-----9-----9-----9--9--9--9--9--9--9--9--9--|
D|-----------------------------------------------7-----7-----7--7--7--7--7--7--7--7--7--|

D|--------------------------------------------------------------------------------------|
A|--------------------------------------------------------------------------------------| all x2
F|--------------------------------------------7--7-----7--7--7--------------------------|
C|--5-----5-----5--5--5--5--5--5--5--5--5-----7--7-----7--7--7--7-----7--7-----7--7--7--|
G|--5-----5-----5--5--5--5--5--5--5--5--5-----5--5-----5--5--5--7-----7--7-----7--7--7--|
D|--3-----3-----3--3--3--3--3--3--3--3--3-----------------------5-----5--5-----5--5--5--|

[Chorus]
D|--------------------------------------------|--------------------------------------------|
A|--------------------------------------------|--------------------------------------------|
F|--------------------------------------------|--7--7-----7--7--7--------------------------| x4
C|--9--9-----9--9--9--5-----5--5-----5--5--5--|--7--7-----7--7--7--7-----7--7-----7--7--7--|
G|--9--9-----9--9--9--5-----5--5-----5--5--5--|--5--5-----5--5--5--7-----7--7-----7--7--7--|
D|--7--7-----7--7--7--3-----3--3-----3--3--3--|--------------------5-----5--5-----5--5--5--|

last time it plays a C after the end: 
D|-----|
A|-----|
F|--7--|
C|--7--|
G|--5--|
D|-----|

[Interlude]
lead:
D|---5---5---5-252---2-252--2-252---2-252--2-2527-5-252--2-252--2-252--2-2527|
A|-3---3---3------3-------3------3-------3-------------3------3------3-------| 
F|---------------------------------------------------------------------------| X2
C|---------------------------------------------------------------------------|
G|---------------------------------------------------------------------------|
D|---------------------------------------------------------------------------|

[Verse]
D|--------------------------------------------------------------------------------------|
A|--------------------------------------------------------------------------------------|
F|--7-----7--7-----7--7--7--7--7--7--7--7--7--------------------------------------------|
C|--7-----7--7-----7--7--7--7--7--7--7--7--7-----9-----9-----9--9--9--9--9--9--9--9--9--|
G|--5-----5--5-----5--5--5--5--5--5--5--5--5-----9-----9-----9--9--9--9--9--9--9--9--9--|
D|-----------------------------------------------7-----7-----7--7--7--7--7--7--7--7--7--|

D|--------------------------------------------------------------------------------------|
A|--------------------------------------------------------------------------------------|
F|--------------------------------------------7--7-----7--7--7--------------------------| all x2
C|--5-----5-----5--5--5--5--5--5--5--5--5-----7--7-----7--7--7--7-----7--7-----7--7--7--|
G|--5-----5-----5--5--5--5--5--5--5--5--5-----5--5-----5--5--5--7-----7--7-----7--7--7--|
D|--3-----3-----3--3--3--3--3--3--3--3--3-----------------------5-----5--5-----5--5--5--|

[Chorus]
D|--------------------------------------------|--------------------------------------------|
A|--------------------------------------------|--------------------------------------------|
F|--------------------------------------------|--7--7-----7--7--7--------------------------| x4
C|--9--9-----9--9--9--5-----5--5-----5--5--5--|--7--7-----7--7--7--7-----7--7-----7--7--7--|
G|--9--9-----9--9--9--5-----5--5-----5--5--5--|--5--5-----5--5--5--7-----7--7-----7--7--7--|
D|--7--7-----7--7--7--3-----3--3-----3--3--3--|--------------------5-----5--5-----5--5--5--|

last time it plays a C after the end: 
D|-----|
A|-----|
F|--7--|
C|--7--|
G|--5--|
D|-----|

[Interlude]
lead:
D|---5---5---5-252---2-252--2-252---2-252--2-2527-5-252--2-252--2-252--2-2527|
A|-3---3---3------3-------3------3-------3-------------3------3------3-------| X2
F|---------------------------------------------------------------------------|
C|---------------------------------------------------------------------------|
G|---------------------------------------------------------------------------|
D|---------------------------------------------------------------------------|

[Bridge]
D|--------------------------------------------|--------------------------------------------|
A|--------------------------------------------|--------------------------------------------| x4
F|--------------------4-----4--4-----4--4--4--|--7--7-----7--7--7--6-----6--6-----6--6--6--|
C|--9--9-----9--9--9--5-----5--5-----5--5--5--|--7--7-----7--7--7--7-----7--7-----7--7--7--|
G|--9--9-----9--9--9--5-----5--5-----5--5--5--|--5--5-----5--5--5--7-----7--7-----7--7--7--|
D|--7--7-----7--7--7--3-----3--3-----3--3--3--|--------------------5-----5--5-----5--5--5--|

after 4th time it goes:
D|--------------------------------------------|
A|--------------------------------------------|
F|--------------------------------------------|
C|--9--------------7--------------5-----------|
G|--9--------------7--------------5-----------|
D|--7--------------5--------------3-----------|

[Chorus]
D|--------------------------------------------|--------------------------------------------|
A|--------------------------------------------|--------------------------------------------|
F|--------------------------------------------|--7--7-----7--7--7--------------------------| x6
C|--9--9-----9--9--9--5-----5--5-----5--5--5--|--7--7-----7--7--7--7-----7--7-----7--7--7--|
G|--9--9-----9--9--9--5-----5--5-----5--5--5--|--5--5-----5--5--5--7-----7--7-----7--7--7--|
D|--7--7-----7--7--7--3-----3--3-----3--3--3--|--------------------5-----5--5-----5--5--5--|

last time it plays a C after the end: 
D|-----|
A|-----|
F|--7--|
C|--7--|
G|--5--|
D|-----|

last 4 times guitar 2 plays some octaves under the chorus. get it yourselves it is pretty simple. ;)

************************************

| /  Slide up

************************************
Suggest correction
Give kudos to tab author, rate the tab!
1 2 3 4 5
comments
print report bad tab
guest
You may want to rate the tab now too:
select rating
Wanna post a correction for this tab? Suggest correction