Oops, an error
Loading. Please wait.

Even Cowgirls Get The Blues Bass Tab

4,772 views 1 this week
1 commentread comment
1 2 3 4 5
excellent!
x 3
add to favorites
launch autoscroll
font size
0
reset
guitar tuner
Autoscroll
slow
fast
+/-
esc
set tempo
stop
Help us to improve Ultimate-Guitar.com Take our survey!
×
Author
Difficulty
novice
Intro

G----|----------------|-----------------------|
D----|----------------|-----------------------|
A----|----2-----------|----2-4-6--------------|
E-4~-|-4-----2--4-4-2-|-4--------2-2-2-4-4-2--|

Verse 1

G---------------|    G---------------------|
D---------------|    D---------------------|
A-----------2---|    A---------------------|
E--4--2--0------|X3  E--4--2--0-0-0-0-0-0--|

Chorus

G-----------------|    G----------------------|
D-----------------|    D----------------------|
A-----2-----------|    A----2-4-6-------------|
E--4-----2--4-4-2-|X3  E-4--------2-2-2-4-4-2-|

Post Chorus

G---------------|
D---------------|
A-----------2---|
E--4--2--0------| X2

Verse 2

G---------------|    G---------------------|
D---------------|    D---------------------|
A-----------2---|    A---------------------|
E--4--2--0------|X3  E--4--2--0-0-0-0-0-0--|

Chorus

G-----------------|    G----------------------|
D-----------------|    D----------------------|
A-----2-----------|    A----2-4-6-------------|
E--4-----2--4-4-2-|X3  E-4--------2-2-2-4-4-2-|

Bridge

G--------------------------|
D--------------------------|
A-------------2-2-2--------|
E-0-0-0-0-0-0-------2-2-2--| X3

G-----------------------------------|
D-----------------------------------|
A-------------2-2-2-/-14-14-14------|
E-0-0-0-0-0-0-------------------4~--|

Chorus

G-----------------|    G----------------------|
D-----------------|    D----------------------|
A-----2-----------|    A----2-4-6-------------|
E--4-----2--4-4-2-|X3  E-4--------2-2-2-4-4-2-|

Outro

G--------------------------|
D--------------------------|
A-------------2-2-2--------|
E-0-0-0-0-0-0-------2-2-2--| X3

G-----------------------------------|
D-----------------------------------|
A-------------2-2-2-/-14-14-14------|
E-0-0-0-0-0-0-------------------4~--|

G----|
D----|
A----|
E-4~-|
Suggest correction
Give kudos to tab author, rate the tab!
1 2 3 4 5
comments
print report bad tab
1 comment total.
0 reply
Billy M 419 wrote on April 15 2010, 11:15 am

Very nice tab, and I love this song.

guest
You may want to rate the tab now too:
select rating
Wanna post a correction for this tab? Suggest correction