Oops, an error
Loading. Please wait.

Even Cowgirls Get The Blues Tab

version 1
version 1

Intro

Whole song

15,487 views 6 this week
1 commentread comment
1 2 3 4 5
worth learning
x 3
add to favorites
launch autoscroll
font size
0
reset
how to read this tab
guitar tuner
Autoscroll
slow
fast
+/-
esc
set tempo
stop
Help us to improve Ultimate-Guitar.com Take our survey!
×
Author
Difficulty
novice
Even Cowgirls Get the Blues (intro) - The Gaslight Anthem

Tabbed by: Crescens
Tuning: EADGBe


e|------------------------------------------|
B|-9~-11-9-7----7---------------------------|
G|-----------8~---8-6----6------------------|
D|--------------------9~---9/11-------------|
A|------------------------------11~-9-------|
E|------------------------------------------|

e|------------------------------------------|
B|-9~-11-9-7----7---------------------------|
G|-----------8~---8-6----6------------------|
D|--------------------9~---9/11-------------|
A|------------------------------11~---------|
E|------------------------------------------|

e|------------------------------------------|
B|-9~-11-9-7----7---------------------------|
G|-----------8~---8-6----6------------------|
D|--------------------9~---9/11-------------|
A|------------------------------11~-9-------|
E|------------------------------------------|

e|--------------------9~-11b-9\7------------|
B|-9~-11-9-7----7----------------9~-7-------|
G|-----------8~---8-6-----------------------|
D|------------------------------------------|
A|------------------------------------------|
E|------------------------------------------|


/ = slide up
\ = slide down
h = hammer on 
p = pull off
b = bend
r = release
x = muted string
~ = vibrato
Suggest correction
Give kudos to tab author, rate the tab!
1 2 3 4 5
comments
print report bad tab
1 comment total.
0 reply
curtincall1984 10 wrote on September 19 2008, 04:12 am

this is the way Alex played it live...


e|-4~-7-4------------------------|
B|--------7-4-4-7----------------|
G|----------------7-6-6b-7-------| >3x
D|-------------------------6~-4~-|
A|-------------------------------|
E|-------------------------------|


e|-4~-7-4-----------9-9-9/11-------|
B|--------7-4-4-7------------9~-7~-|
G|----------------7----------------|
D|---------------------------------|
A|---------------------------------|
E|---------------------------------|


/ = slide up
\ = slide down
h = hammer on
p = pull off
b = bend
r = release
x = muted string
~ = vibrato

guest
You may want to rate the tab now too:
select rating
Please do not post tabs as comments. Select "correction" instead!