Oops, an error
Loading. Please wait.

Even Cowgirls Get The Blues Tab

version 1
version 1

Whole song

17,705 views 3 this week
3 commentsread comments
1 2 3 4 5
accurate
x 4
add to favorites
launch autoscroll
font size
0
reset
how to read this tab
guitar tuner
Autoscroll
slow
fast
+/-
esc
set tempo
stop
Help us to improve Ultimate-Guitar.com Take our survey!
×
The Gaslight Anthem - Even Cowgirls Get the Bluse


e|----7-------------------------------------|
B|-9~----9-7----7---------------------------|
G|-----------8~---8-7-6---6-6h7h8-----------|  3x  (play the last tune (4)
D|--------------------------------6--4—-----|       first and third time)
A|------------------------------------------|
E|------------------------------------------|

e|----7---------------7—9b-9b-7-------------|
B|-9~----9-7----7----------------9/---------|
G|-----------8~---8-7-----------------------|
D|------------------------------------------|
A|------------------------------------------|
E|------------------------------------------|


e|------------------------------------------|
B|------------------------------------------|
G|------------------------------------------|
D|--6--8--9-8-6-6—4-4—6---8--6-6-4-6--------|
A|------------------------------------------|
E|------------------------------------------|

Chords: G#m B F# E or G#m
(I guess this chords are wrong in some way, especially the last part. I would be very 
if someone could help me out)
Suggest correction
comments
print report bad tab
3 comments total.
+1 reply
oOBMANOo 102 wrote on July 15 2009, 08:57 pm

those are the chords they use through out the entire song im pretty sure. i think it goes like this

intro: (strum the G#m once then) G#m B F# G#m

Verse: G#m F#m E B

Chorus: G#m B F#m G#m (i think)

Bridge: E B

0 reply
oOBMANOo 102 wrote on October 13 2009, 09:43 pm

sorry not F#m its just F#

0 reply
mcraddict81592 250 wrote on April 6 2010, 10:32 pm

Could you tab out the lead on the bridge/outro??

guest
You may want to rate the tab now too:
select rating
Please do not post tabs as comments. Select "correction" instead!