Oops, an error
Loading. Please wait.

Great Expectations Bass Tab

version 1
version 1

Whole song

Interactive

12,041 views 24 this week
no commentswrite comment
1 2 3 4 5
please rate
add to favorites
launch autoscroll
font size
0
reset
guitar tuner
Tab Pro tools
  • play this tab
  • loop segment
  • change instrument
  • show fretboard
  • metronome
×
Best way to learn
"Great Expectations"
Autoscroll
slow
fast
+/-
esc
set tempo
stop
Contributor
Band: Gaslight Anthem
Album The ’59 Sound
Song: Great Expectations

Tuning: Drop d

Verse (0:10) x2

G|------------------------------------------------------------------|
D|---------------------------------5-5---5-5-55-55-5-5---5-----5-7--| 
A|-1-1---1-1-11-11-1-1---1-5---1-3-------------------------3--------|
D|------------------------------------------------------------------|

G|-------------------------5-----5----------------------------------|
D|-8-8---8-8-88-88-8-8---8-----8---5-5---5-5-55-55-5-5---5-5-55555--| 
A|------------------------------------------------------------------|
D|------------------------------------------------------------------|

Pre-chorus (0:41)

G|----------------------------------|
D|----------------------------------| 
A|-6-6---6-6-66-66-8-8---8-8-88-88--|
D|----------------------------------|

Chorus (0:44)

G|----------------------------------|
D|-5-555555--------8-888888---------| 
A|---------6-666666--------8-888888-| x3
D|----------------------------------|

G|-----------------------------------------------------------|
D|-5-555555--------8-888888----------------------------------| 
A|---------6-666666--------8-888888--------------------------|
D|---------------------------------8-8--8-8-88-88-8-8---8-8\-|

Verse (1:04)

G|------------------------------------------------------------------|
D|---------------------------------5-5---5-5-55-55-5-5---5-----5-7--| 
A|-1-1---1-1-11-11-1-1---1-5---1-3-------------------------3--------|
D|------------------------------------------------------------------|

G|-------------------------5-----5----------------------------------|
D|-8-8---8-8-88-88-8-8---8-----8---5-5---5-5-55-55-5-5---5-5-55555--| 
A|------------------------------------------------------------------|
D|------------------------------------------------------------------|

Pre-chorus (1:19)

G|----------------------------------|
D|----------------------------------| 
A|-6-6---6-6-66-66-8-8---8-8-88-88--| x2
D|----------------------------------|	

Chorus (1:27)

G|----------------------------------|
D|-5-555555--------8-888888---------| 
A|---------6-666666--------8-888888-| x4
D|----------------------------------|

Bridge (1:42)

G|----------------------------------|
D|-5~--------------5~---------------| 
A|----------------------------------|
D|----------------------------------|

G|----------------------------------|
D|-5-555555-------------------------| 
A|---------6-666666-----------------|
D|-----------------8-8888883-333333-|

G|----------------------------------|
D|-5-555555-------------------------| 
A|---------6-666666--------8-888888-|
D|-----------------8-888888---------|

Pre-chorus (1:58)

G|----------------------------------|
D|----------------------------------| 
A|----------------------------------| x3
D|-1-111111111111113-33333333333333-|

G|----------------------------------|
D|----------------------------------| 
A|----------------------------------|
D|-5-555555555555553-33333333333333-|

Chorus (2:14)

G|----------------------------------|
D|-5-555555--------8-888888---------| 
A|---------6-666666--------8-888888-| x4
D|----------------------------------|

Ending (2:30)

G|----------------------------------|
D|-8~------------345~---------------| 
A|----------------------------------|
D|----------------------------------| 

G|----------------------------------|
D|-8~------------345~-----------55--| 
A|--------------------------------8-|
D|----------------------------------|

G|--------------------------------------------------|
D|---------------5-----------------8~---------------|
A|-6~--------------8~------------8------------------|
D|--------------------------------------------------|
comments
We did not receive enough feedback on this tab! Please rate:
print report bad tab
1 2 3 4 5
I want to post or [tab]
guest
You may want to rate the tab now too:
select rating
Please do not post tabs as comments. Select "correction" instead!