Oops, an error
Loading. Please wait.

Great Expectations Tab

version 1
version 1

Intro

Whole song

Interactive

10,373 views 3 this week
no commentswrite comment
1 2 3 4 5
x 3
add to favorites
launch autoscroll
font size
0
reset
how to read this tab
guitar tuner
Autoscroll
slow
fast
+/-
esc
set tempo
stop
Help us to improve Ultimate-Guitar.com Take our survey!
×
1|---3-------6-5---|---3-------6-5---|
2|-------3-------6-|-------3-------6-|
3|-3-------3-------|-3-------3-------|
4|-----------------|-----------------|
5|-----------------|-----------------|
6|-----------------|-----------------|

1|---3-------6-5---|---3-------6-5---|
2|-------3-------6-|-------3-------6-|
3|-3-------3-------|-3-------3-------|
4|-----------------|-----------------|
5|-----------------|-----------------|
6|-----------------|-----------------|
Suggest correction
Give kudos to tab author, rate the tab!
1 2 3 4 5
comments
print report bad tab
guest
You may want to rate the tab now too:
select rating
Wanna post a correction for this tab? Suggest correction