Oops, an error
Loading. Please wait.

High Lonesome Bass Tab

5,626 views 9 this week
2 commentsread comments
1 2 3 4 5
1 last vote to show rating
add to favorites
launch autoscroll
font size
0
reset
guitar tuner
Autoscroll
slow
fast
+/-
esc
set tempo
stop
Help us to improve Ultimate-Guitar.com Take our survey!
×
Author
Band: Gaslight Anthem
Album: The ’59 Sound
Song: High Lonesome

Tuning: Drop D

Intro

G|----------------------------------|
D|----------------------------------| 
A|--------------5--6-66666666666666-| x2
D|-8-88888888888--------------------|

G|----------------------------------|
D|----------------------------------| 
A|----------------------------------|
D|-5-555555555555551-11111111111111-|

G|----------------------------------|
D|----------------------------------| 
A|-----------------6-6666668-888888-|
D|-5-55555555555555-----------------|

Verse (0:20)

G|----------------------------------|
D|----------------------------------| 
A|-----------------3-33-3-3---------|
D|-5-55-5-5-5-5-5-5--------3-33-3-3-|

G|----------------------------------|
D|----------------------------------| 
A|----------------------------------|
D|-5-55-5-5-5-5-5-58-88-8-83-33-3-3-|

G|----------------------------------|
D|----------------------------------| 
A|-----------------3-33-3-3---------|
D|-5-55-5-5-5-5-5-5--------3-33-3-3-|

G|----------------------------------|
D|----------------------------------| 
A|----------------------------------|
D|-5-55-5-5-5-5-5-58-88-8-83-333333-|

G|----------------------------------|
D|----------------------------------| 
A|----------------------------------|
D|-1-111111111111113-33333333333333-|

Chorus (0:47)

G|----------------------------------|
D|----------------------------------| 
A|----------------------------------| x2
D|-5-5-5551-11111118-8-8883-3333333-|

G|----------------------------------|
D|----------------------------------| 
A|------------------------8-8888888-|
D|-5-5-5551-11111118-8-888----------|

G|--------------------10----------------|
D|-5-5-555---------8-8---888---------5.-|
A|--------6-6666666---------8-8888888---|
D|--------------------------------------|

Pause

Verse (1:10)

G|----------------------------------|
D|----------------------------------| 
A|-----------------3-33-3-3---------|
D|-5-55-5-5-5-5-5-5--------3-33-3-3-|

G|----------------------------------|
D|----------------------------------| 
A|----------------------------------|
D|-5-55-5-5-5-5-5-58-88-8-83-33-3-3-|

G|----------------------------------|
D|----------------------------------| 
A|-----------------3-33-3-3---------|
D|-5-55-5-5-5-5-5-5--------3-33-3-3-|

G|----------------------------------|
D|----------------------------------| 
A|----------------------------------|
D|-5-55-5-5-5-5-5-58-88-8-83-333333-|

G|----------------------------------|
D|----------------------------------| 
A|----------------------------------|
D|-1-111111111111113-33333333333333-|

Chorus (1:36)

G|----------------------------------|
D|----------------------------------| 
A|----------------------------------| x4
D|-5-5-5551-11111118-8-8883-3333333-|

Bridge (1:58)

G|----------------------------------|
D|----------------------------------| 
A|----------------------------------| x2
D|-5-55~-----------1-11~---3-33~----|

G|----------------------------------|
D|----------------------------------| 
A|----------------------------------| x2
D|-5-5-5-5-5-5-5-5-1-1-1-1-3-3-3-3--|

Final chorus (2:19)

G|----------------------------------|
D|----------------------------------| 
A|----------------------------------|
D|-5~---------------------------20\-|

G|----------------------------------|
D|----------------------------------| 
A|----------------------------------| x2
D|-5-5-5551-11111118-8-8883-3333333-|

G|--------------------10------------|
D|----------------------------------| 
A|------------------------8-8888888-|
D|-5-5-5551-11111118-8-888----------|

G|-----------------13131313---------|
D|-5-5-555-----------------13131313-| 
A|--------6-6666666-----------------| (13’s not 1’s and 3’s)
D|----------------------------------|

G|----------------------------------|
D|-5-5-555---------8-8-888----------| 
A|--------6-6666666-------8-8888888-| x2
D|----------------------------------|

G|----------------------------------|
D|-5-5-555---------8-8-888----------| 
A|--------6-6666666-------8.--------|
D|----------------------------------|
Suggest correction
Give kudos to tab author, rate the tab!
1 2 3 4 5
comments
print report bad tab
2 comments total.
0 reply
ACA 103 Sep 01, 2008 07:58 PM

nice tab.. i'd love guitar chords

0 reply
Pale_Pilgrim 702 Mar 26, 2014 05:59 PM

Excellent.

guest
You may want to rate the tab now too:
select rating
Wanna post a correction for this tab? Suggest correction