Oops, an error
Loading. Please wait.

Ida Called You Woody Joe Bass Tab

5,846 views 3 this week
no commentswrite comment
1 2 3 4 5
please rate
add to favorites
launch autoscroll
font size
0
reset
guitar tuner
Autoscroll
slow
fast
+/-
esc
set tempo
stop
Help us to improve Ultimate-Guitar.com Take our survey!
×
Author
Band: Gaslight Anthem (http://www.gaslightanthem.com/)
Album: Sink or Swim
Song: I'da Called You Woody, Joe

I love this band!
I’m pretty sure this song is about Joe Strummer

Please Rate!

~ = let ring

Verse (0:02)

G|-----------------------------------|
D|-----------------------------------| 
A|-----------------------------------| x2
E|-66-666-666-666-6-33-333-333-333-3-|

G|-----------------------------------|
D|-----------------------------------| 
A|-6666666666666666-8888888888888888-| 
E|-----------------------------------|

G|-----------------------------------|
D|-----------------------------------| 
A|-----------------------------------| 
E|-6-6-666666666666-3333333333333333-|

G|-----------------------------------|
D|-----------------------------------| 
A|-----------------------------------| 
E|-6666666666666666-3333333333333333-|

G|-----------------------------------|
D|-----------------------------------| 
A|-6666666666666666-8888888888888888-| 
E|-----------------------------------|

Pre-Chorus:(0:36)

G|------------------------------------|
D|-5-555555---------------------------| 
A|----------8-888888-6-6666-6-6666666-| 
E|------------------------------------|

Chorus: (0:41)

G|-----------------------------------|
D|-----------------------------------|
A|------------------6-6666-6-6666666-|   x3
E|-6-66666-6-666666------------------|

G|-----------------------------------|
D|-----------------------------------|
A|------------------6-6666-6-6666666-| 
E|-666-666-666-6666------------------|

Post-Chorus: (1:04)

G|-----------------------------------|
D|-----------------------------------| 
A|-5-5555-5-555555-6-66666-8-8888888-| 
E|-----------------------------------|

Then:

Verse (1:12)
Pre-Chorus (1:46)
Chorus (1:52)
Post Chorus (2:14)

Final verse: (2:20)

G|-----------------------------------|
D|-----------------------------------| 
A|-----------------------------------| x2
E|-6~---------------3~---------------|

G|-----------------------------------|
D|-----------------------------------| 
A|-66-666-666-666-6-88-888-888-888-8-|
E|-----------------------------------|

Final Pre-Chorus: (2:36)

G|-----------------------------------|
D|-----------------------------------| 
A|-5~-----5~-------6~------8-8-8-8-8-| 
E|-----------------------------------|

Chorus (2:43) x2

End: (3:05)

G|-----------------------------------|
D|-----------------------------------| 
A|-5-5555-5-555555-6-6666------------| 
E|------------------------8-888-6666-|

G|------------------------------------------------|
D|------------------------------------------------| 
A|-5-5555-5-555555-6-66666-8-8888888--------------| 
E|-----------------------------------6~---6-6-6-6-|

Suggest correction
What's this?
You can suggest a correction to this tab. Community and Mods will review your correction and vote to approve or reject it.
comments
We did not receive enough feedback on this tab! Please rate:
print report bad tab
1 2 3 4 5
guest
You may want to rate the tab now too:
select rating
Please do not post tabs as comments. Select "correction" instead!