Oops, an error
Loading. Please wait.

National Anthem Tab

version 1
version 1

Whole song

Interactive

27,669 views 54 this week
no commentswrite comment
1 2 3 4 5
x 7
add to favorites
launch autoscroll
font size
0
reset
how to read this tab
guitar tuner
Autoscroll
slow
fast
+/-
esc
set tempo
stop
Help us to improve Ultimate-Guitar.com Take our survey!
×
Author
The Gaslight Anthem - “National Anthem”

[Intro]
  E
e|----------------------------------------------------------------|
B|------0---------------0---------------0---------------0---------|
G|----------1---1-----------1---1-----------1---1-----------1---1-|
D|----2-------2-------2-------2-------2-------2-------2-------2---|
A|----------------------------------------------------------------|
E|0---------------0---------------0---------------0---------------|

[Verse]
  C#m             B               A               E
e|----------------------------------------------------------------|
B|------5---------------4---------------2---------------0---------|
G|----------6---6-----------4---4-----------2---2-----------1---1-|
D|----6-------6-------4-------4-------2-------2-------2-------2---|
A|4---------------2---------------0-------------------------------|
E|------------------------------------------------0---------------|

                                                 C#m
e|----------------------------------------------------------------|
B|------0---------------0---------------0---------------5---------|
G|----------1---1-----------1---1-----------1---1-----------6---6-|
D|----2-------2-------2-------2-------2-------2-------6-------6---|
A|------------------------------------------------4---------------|
E|0---------------0---------------0-------------------------------|

  B               A               E
e|----------------------------------------------------------------|
B|------4---------------2---------------0---------------0---------|
G|----------4---4-----------2---2-----------1---1-----------1---1-|
D|----4-------4-------2-------2-------2-------2-------2-------2---|
A|2---------------0-----------------------------------------------|
E|--------------------------------0---------------0---------------|

                                  A
e|----------------------------------------------------------------|
B|------0---------------0---------------2---------------2---------|
G|----------1---1-----------1---1-----------2---2-----------2---2-|
D|----2-------2-------2-------2-------2-------2-------2-------2---|
A|--------------------------------0---------------0---------------|
E|0---------------0-----------------------------------------------|

  B               C#m
e|----------------------------------------------------------------|
B|------4---------------5---------------5---------------5---------|
G|----------4---4-----------6---6-----------6---6-----------6---6-|
D|----4-------4-------6-------6-------6-------6-------6-------6---|
A|2---------------4---------------4---------------4---------------|
E|----------------------------------------------------------------|

                  A                               B
e|----------------------------------------------------------------|
B|------5---------------2---------------2---------------4---------|
G|----------6---6-----------2---2-----------2---2-----------4---4-|
D|----6-------6-------2-------2-------2-------2-------4-------4---|
A|4---------------0---------------0---------------2---------------|
E|----------------------------------------------------------------|

  C#m
e|----------------------------------------------------------------|
B|------5---------------5---------------5---------------5---------|
G|----------6---6-----------6---6-----------6---6-----------6---6-|
D|----6-------6-------6-------6-------6-------6-------6-------6---|
A|4---------------4---------------4---------------4---------------|
E|----------------------------------------------------------------|

  A               B               E
e|----------------------------------------------------------------|
B|------2---------------4---------------0---------------0---------|
G|----------2---2-----------4---4-----------1---1-----------1---1-|
D|----2-------2-------4-------4-------2-------2-------2-------2---|
A|0---------------2-----------------------------------------------|
E|--------------------------------0---------------0---------------|

e|--------------------------------|
B|------0---------------0---------|
G|----------1---1-----------1---1-|
D|----2-------2-------2-------2---|
A|--------------------------------|
E|0---------------0---------------|

[Chorus 1]
  A                               E
e|----------------------------------------------------------------|
B|------2---------------2---------------0---------------0---------|
G|----------2---2-----------2---2-----------1---1-----------1---1-|
D|----2-------2-------2-------2-------2-------2-------2-------2---|
A|0---------------0-----------------------------------------------|
E|--------------------------------0---------------0---------------|

  A                               E
e|----------------------------------------------------------------|
B|------2---------------2---------------0---------------0---------|
G|----------2---2-----------2---2-----------1---1-----------1---1-|
D|----2-------2-------2-------2-------2-------2-------2-------2---|
A|0---------------0-----------------------------------------------|
E|--------------------------------0---------------0---------------|

  A                               E
e|----------------------------------------------------------------|
B|------2---------------2---------------0---------------0---------|
G|----------2---2-----------2---2-----------1---1-----------1---1-|
D|----2-------2-------2-------2-------2-------2-------2-------2---|
A|0---------------0-----------------------------------------------|
E|--------------------------------0---------------0---------------|

  B
e|----------------------------------------------------------------|
B|------4---------------4---------------4---------------4---------|
G|----------4---4-----------4---4-----------4---4-----------4---4-|
D|----4-------4-------4-------4-------4-------4-------4-------4---|
A|2---------------2---------------2---------------2---------------|
E|----------------------------------------------------------------|

[Bridge]
  A                               E
e|----------------------------------------------------------------|
B|------2---------------2---------------0---------------0---------|
G|----------2---2-----------2---2-----------1---1-----------1---1-|
D|----2-------2-------2-------2-------2-------2-------2-------2---|
A|0---------------0-----------------------------------------------|
E|--------------------------------0---------------0---------------|

  A                               E
e|----------------------------------------------------------------|
B|------2---------------2---------------0---------------0---------|
G|----------2---2-----------2---2-----------1---1-----------1---1-|
D|----2-------2-------2-------2-------2-------2-------2-------2---|
A|0---------------0-----------------------------------------------|
E|--------------------------------0---------------0---------------|

  A               B               C#m
e|----------------------------------------------------------------|
B|------2---------------4---------------5---------------5---------|
G|----------2---2-----------4---4-----------6---6-----------6---6-|
D|----2-------2-------4-------4-------6-------6-------6-------6---|
A|0---------------2---------------4---------------4---------------|
E|----------------------------------------------------------------|

  A               B               E
e|----------------------------------------------------------------|
B|------2---------------4---------------0---------------0---------|
G|----------2---2-----------4---4-----------1---1-----------1---1-|
D|----2-------2-------4-------4-------2-------2-------2-------2---|
A|0---------------2-----------------------------------------------|
E|--------------------------------0---------------0---------------|

e|--------------------------------|
B|------0---------------0---------|
G|----------1---1-----------1---1-|
D|----2-------2-------2-------2---|
A|--------------------------------|
E|0---------------0---------------|

[Outro]
  C#m             B               A               E
e|----------------------------------------------------------------|
B|------5---------------4---------------2---------------0---------|
G|----------6---6-----------4---4-----------2---2-----------1---1-|
D|----6-------6-------4-------4-------2-------2-------2-------2---|
A|4---------------2---------------0-------------------------------|
E|------------------------------------------------0---------------|

                                                 C#m
e|----------------------------------------------------------------|
B|------0---------------0---------------0---------------5---------|
G|----------1---1-----------1---1-----------1---1-----------6---6-|
D|----2-------2-------2-------2-------2-------2-------6-------6---|
A|------------------------------------------------4---------------|
E|0---------------0---------------0-------------------------------|

  B               A               E
e|----------------------------------------------------------------|
B|------4---------------2---------------0---------------0---------|
G|----------4---4-----------2---2-----------1---1-----------1---1-|
D|----4-------4-------2-------2-------2-------2-------2-------2---|
A|2---------------0-----------------------------------------------|
E|--------------------------------0---------------0---------------|

                                  A               B
e|----------------------------------------------------------------|
B|------0---------------0---------------2---------------4---------|
G|----------1---1-----------1---1-----------2---2-----------4---4-|
D|----2-------2-------2-------2-------2-------2-------4-------4---|
A|--------------------------------0---------------2---------------|
E|0---------------0-----------------------------------------------|

  E
e|--|
B|--|
G|--|
D|--|
A|--|
E|0-|

[Song Order]
[Intro]
[Verse]
[Verse]
[Chorus]
[Verse]
[Chorus]
[Bridge]
[Outro]
Suggest correction
comments
print report bad tab
guest
You may want to rate the tab now too:
select rating
Wanna post a correction for this tab? Suggest correction