Oops, an error
Loading. Please wait.

Old White Lincoln Bass Tab

version 1
version 1

Whole song

6,888 views 1 this week
no commentswrite comment
1 2 3 4 5
accurate
x 3
add to favorites
launch autoscroll
font size
0
reset
guitar tuner
Autoscroll
slow
fast
+/-
esc
set tempo
stop
Help us to improve Ultimate-Guitar.com Take our survey!
×
Author
Band: Gaslight Anthem
Album: The ’59 Sound
Song: Old White Lincoln

Pretty much the same riff all the way through,
but he does play around with octaves a bit

Please Rate

(0:04)

G|---------------5-55555--------|
D|-7-777773-33333-------5-55555-| 
A|------------------------------| xloads
E|------------------------------|

(0:50)

G|------------------------------|
D|------------------------------| 
A|---------------3-33333--------| xloads
E|-5-555551-11111-------3-33333-|

(1:13)

G|---------------5-55555--------|
D|-7-777773-33333-------5-55555-| 
A|------------------------------| xloads
E|------------------------------|

(1:48)

G|------------------------------|
D|------------------------------| 
A|---------------3-33333--------| xloads
E|-5-555551-11111-------3-33333-|

(2:04)

G|---------------5-555557-77777-|
D|-7-777773-33333---------------| 
A|------------------------------| 
E|------------------------------|

(2:09)

G|---------------5-55555--------|
D|-7-777773-33333-------5-55555-| 
A|------------------------------| xloads
E|------------------------------|

(2:38)

G|---------------5-55555--------|
D|-7-777773-33333-------5.------| 
A|------------------------------|
E|------------------------------|

(2:44)

G|------------------------------|
D|------------------------------| 
A|---------------3-33333--------| xloads
E|-5-555551-11111-------3-33333-|

Ending (3:07)

G|------------------------------|
D|-7-777773-333337-777775-55555-| 
A|------------------------------|
E|------------------------------|

G|------------------------------|
D|-7-777773-333337-777775.------| 
A|------------------------------|
E|------------------------------|

Suggest correction
Give kudos to tab author, rate the tab!
1 2 3 4 5
comments
print report bad tab
guest
You may want to rate the tab now too:
select rating
Please do not post tabs as comments. Select "correction" instead!