Oops, an error
Loading. Please wait.

Old White Lincoln Tab

version 1
version 1

Whole song

15,304 views 3 this week
2 commentsread comments
1 2 3 4 5
x 5
add to favorites
launch autoscroll
font size
0
reset
how to read this tab
guitar tuner
Autoscroll
slow
fast
+/-
esc
set tempo
stop
Help us to improve Ultimate-Guitar.com Take our survey!
×
----------------------------------------------------------------------------
                             Old White Lincoln - The Gaslight Anthem
----------------------------------------------------------------------------
Tabbed by: FindTheOtherOne
Email: findtheotherone@freenet.de

Tuning: Standart

e|-------------------------------------------------------------------------|
B|-------------------------------------------------------------------------|
G|--------------------------------5-5-5-5-5--------------------------------|
D|----7-7-7-7-7---3-3-3-3-3-3-3---5-5-5-5-5---5-5-5-5-5-5-5----------------|
A|----7-7-7-7-7---3-3-3-3-3-3-3---3-3-3-3-3---5-5-5-5-5-5-5----------------|
E|----5-5-5-5-5---1-1-1-1-1-1-1---------------3-3-3-3-3-3-3----------------|


Repeat this over and over again, become a hero and do a barrel roll.
Suggest correction
comments
print report bad tab
2 comments total.
0 reply
brandon13_69 10 Dec 03, 2008 02:32 AM

not right.

0 reply
Charlie00004444 42 Feb 13, 2009 01:24 PM

yep
not right

guest
You may want to rate the tab now too:
select rating
Wanna post a correction for this tab? Suggest correction