Oops, an error
Loading. Please wait.

Old White Lincoln Bass

version 2
version 2

Whole song

12,557 views 3 this week
3 commentsread comments
1 2 3 4 5
x 5
add to favorites
launch autoscroll
font size
0
reset
guitar tuner
Autoscroll
slow
fast
+/-
esc
set tempo
stop
Author
-------------------------------------------------------------------------------
			     Old White Lincoln - The Gaslight Anthem
-------------------------------------------------------------------------------

Tabbed By : David Ziemann
e-mail: david@janefool.eu

Tuning: D-A-D-G

Intro :
G|-------------------5-5-555-------------------------------------------------|
D|-7-7-777-------------------5-55-5555---------------------------------------|x
A|---------8-88-8888---------------------------------------------------------|8
D|---------------------------------------------------------------------------|

Chorus : (You wear you ...)
G|---------------------------------------------------------------------------|
D|---------------------------------------------------------------------------|x
A|-------------------3-3-333-------------------------------------------------|2
D|-7-7-777-3-33-3333---------5-55-5555---------------------------------------|

Chorus :
G|---------------------------------------------------------------------------|
D|---------------------------------------------------------------------------|x
A|---------8-88-8888-3-3-333-----------------------------3-3-333-------------|1
D|-7-7-777-------------------5-55-5555-7-7-777-3-33-3333---------5-55-5555---|

Verse :
G|-------------------5-5-555-------------------------------------------------|
D|-7-7-777-------------------5-55-5555---------------------------------------|x
A|---------8-88-8888---------------------------------------------------------|6
D|---------------------------------------------------------------------------|

Chorus : (You wear your ...)
G|---------------------------------------------------------------------------|
D|---------------------------------------------------------------------------|x
A|-------------------3-3-333-------------------------------------------------|2
D|-7-7-777-3-33-3333---------5-55-5555---------------------------------------|

Chorus :
G|---------------------------------------------------------------------------|
D|---------------------------------------------------------------------------|x
A|---------8-88-8888-3-3-333-----------------------------3-3-333-------------|1
D|-7-7-777-------------------5-55-5555-7-7-777-3-33-3333---------5-55-5555---|


Verse :
G|-------------------5-5-555-------------------------------------------------|
D|-7-7-777-------------------5-55-5555---------------------------------------|x
A|---------8-88-8888---------------------------------------------------------|5
D|---------------------------------------------------------------------------|

Verse :
G|-------------------5-5-555-------------------------------------------------|
D|-7-7-777-------------------5~~~~~~~~---------------------------------------|x
A|---------8-88-8888---------------------------------------------------------|1
D|---------------------------------------------------------------------------|

Chorus :
G|---------------------------------------------------------------------------|
D|---------------------------------------------------------------------------|x
A|-------------------3-3-333-------------------------------------------------|2
D|-7-7-777-3-33-3333---------5-55-5555---------------------------------------|

Chorus :
G|---------------------------------------------------------------------------|
D|---------------------------------------------------------------------------|x
A|---------8-88-8888-3-3-333-----------------------------3-3-333-------------|1
D|-7-7-777-------------------5-55-5555-7-7-777-3-33-3333---------5-55-5555---|

End :
G|---------------------------------------------------------------------------|
D|---------------------------------------------------------------------------|x
A|---------------------------------------------------------------------------|1
D|-7-7-777-3-33-3333-7-7-777-5-55-5555-7-7-777-3-33-3333-7-7-777-5~~~~~~~~---|


| ~  hold tone

These tabs are 100 % correct, if you have questions email me.
===============================================================================
Suggest correction
comments
print report bad tab
3 comments total.
0 reply
p town massive 20 Feb 17, 2010 10:47 AM

Love the tab, love the band 5*

0 reply
TJ1991 2,034 Oct 04, 2010 08:51 AM

Why is it in drop D? It's note perfect, just wondering.

0 reply
Blunk182 10 May 31, 2011 08:59 AM

Yeah I played without dropping the D and it sounded perfect?

guest
You may want to rate the tab now too:
select rating
Wanna post a correction for this tab? Suggest correction