Oops, an error
Loading. Please wait.

Old White Lincoln Bass Tab

version 3
version 3

Whole song

2,239 views 1 this week
no commentswrite comment
1 2 3 4 5
please rate
add to favorites
launch autoscroll
font size
0
reset
guitar tuner
Tab Pro tools
  • play this tab
  • loop segment
  • change instrument
  • show fretboard
  • metronome
×
Best way to learn
"Old White Lincoln"
Autoscroll
slow
fast
+/-
esc
set tempo
stop
Intro

   Q  Q  E E E E  +E E Q  E E E E   Q  Q  E E E E  +E E Q  E E E E
1|---------------|----------------|-5--5--5-5-5---|----------------|
2|-7--7--7-7-7-3-|---3-3--3-3-3-3-|-------------5-|---5-5--5-5-5-5-|
3|---------------|----------------|---------------|----------------|
4|---------------|----------------|---------------|----------------|

   Q  Q  E E E E  +E E Q  E E E E   Q  Q  E E E E  +E E Q  E E E E
1|---------------|----------------|-5--5--5-5-5---|----------------|
2|-7--7--7-7-7-3-|---3-3--3-3-3-3-|-------------5-|---5-5--5-5-5-5-|
3|---------------|----------------|---------------|----------------|
4|---------------|----------------|---------------|----------------|

   Q  Q  E E E E  +E E Q  E E E E   Q  Q  E E E E  +E E Q  E E E E
1|---------------|----------------|-5--5--5-5-5---|----------------|
2|-7--7--7-7-7-3-|---3-3--3-3-3-3-|-------------5-|---5-5--5-5-5-5-|
3|---------------|----------------|---------------|----------------|
4|---------------|----------------|---------------|----------------|

   Q  Q  E E E E  +E E Q  E E E E   Q  Q  E E E E  +E E Q  E E E E
1|---------------|----------------|-5--5--5-5-5---|----------------|
2|-7--7--7-7-7-3-|---3-3--3-3-3-3-|-------------5-|---5-5--5-5-5-5-|
3|---------------|----------------|---------------|----------------|
4|---------------|----------------|---------------|----------------|


Verse

   Q  Q  E E E E  +E E Q  E E E E   Q  Q  E E E E  +E E Q  E E E E
1|---------------|----------------|-5--5--5-5-5---|----------------|
2|-7--7--7-7-7-3-|---3-3--3-3-3-3-|-------------5-|---5-5--5-5-5-5-|
3|---------------|----------------|---------------|----------------|
4|---------------|----------------|---------------|----------------|

   Q  Q  E E E E  +E E Q  E E E E   Q  Q  E E E E  +E E Q  E E E E
1|---------------|----------------|-5--5--5-5-5---|----------------|
2|-7--7--7-7-7-3-|---3-3--3-3-3-3-|-------------5-|---5-5--5-5-5-5-|
3|---------------|----------------|---------------|----------------|
4|---------------|----------------|---------------|----------------|

   Q  Q  E E E E  +E E Q  E E E E   Q  Q  E E E E  +E E Q  E E E E
1|---------------|----------------|-5--5--5-5-5---|----------------|
2|-7--7--7-7-7-3-|---3-3--3-3-3-3-|-------------5-|---5-5--5-5-5-5-|
3|---------------|----------------|---------------|----------------|
4|---------------|----------------|---------------|----------------|

   Q  Q  E E E E  +E E Q  E E E E   Q  Q  E E E E  +E E Q  E E E E
1|---------------|----------------|-5--5--5-5-5---|----------------|
2|-7--7--7-7-7-3-|---3-3--3-3-3-3-|-------------5-|---5-5--5-5-5-5-|
3|---------------|----------------|---------------|----------------|
4|---------------|----------------|---------------|----------------|


Chorus

   Q  Q  E E E E  +E E Q  E E E E   Q  Q  E E E E  +E E Q  E E E E
1|---------------|----------------|---------------|----------------|
2|---------------|----------------|---------------|----------------|
3|---------------|----------------|-3--3--3-3-3---|----------------|
4|-5--5--5-5-5-1-|---1-1--1-1-1-1-|-------------3-|---3-3--3-3-3-3-|

    Q  Q  E E E E  +E E Q  E E E E   Q  Q  E E E E  +E E Q  E E E E
1|---------------|----------------|---------------|----------------|
2|---------------|----------------|---------------|----------------|
3|---------------|----------------|-3--3--3-3-3---|----------------|
4|-5--5--5-5-5-1-|---1-1--1-1-1-1-|-------------3-|---3-3--3-3-3-3-|

    Q  Q  E E E E  +E E Q  E E E E   Q  Q  E E E E  +E E Q  E E E E
1|---------------|----------------|---------------|----------------|
2|---------------|----------------|---------------|----------------|
3|---------------|----------------|-3--3--3-3-3---|----------------|
4|-5--5--5-5-5-1-|---1-1--1-1-1-1-|-------------3-|---3-3--3-3-3-3-|

   Q  Q  E E E E  +E E Q  E E E E   Q  Q  E E E E  +E E Q  E E E E
1|---------------|----------------|---------------|----------------|
2|---------------|----------------|---------------|----------------|
3|---------------|----------------|-3--3--3-3-3---|----------------|
4|-5--5--5-5-5-1-|---1-1--1-1-1-1-|-------------3-|---3-3--3-3-3-3-|


Pre-verse

   Q  Q  E E E E  +E E Q  E E E E   Q  Q  E E E E  +E E Q  E E E E
1|---------------|----------------|-5--5--5-5-5---|----------------|
2|-7--7--7-7-7-3-|---3-3--3-3-3-3-|-------------5-|---5-5--5-5-5-5-|
3|---------------|----------------|---------------|----------------|
4|---------------|----------------|---------------|----------------|

   Q  Q  E E E E  +E E Q  E E E E   Q  Q  E E E E  +E E Q  E E E E
1|---------------|----------------|-5--5--5-5-5---|----------------|
2|-7--7--7-7-7-3-|---3-3--3-3-3-3-|-------------5-|---5-5--5-5-5-5-|
3|---------------|----------------|---------------|----------------|
4|---------------|----------------|---------------|----------------|


Verse

   Q  Q  E E E E  +E E Q  E E E E   Q  Q  E E E E  +E E Q  E E E E
1|---------------|----------------|-5--5--5-5-5---|----------------|
2|-7--7--7-7-7-3-|---3-3--3-3-3-3-|-------------5-|---5-5--5-5-5-5-|
3|---------------|----------------|---------------|----------------|
4|---------------|----------------|---------------|----------------|

   Q  Q  E E E E  +E E Q  E E E E   Q  Q  E E E E  +E E Q  E E E E
1|---------------|----------------|-5--5--5-5-5---|----------------|
2|-7--7--7-7-7-3-|---3-3--3-3-3-3-|-------------5-|---5-5--5-5-5-5-|
3|---------------|----------------|---------------|----------------|
4|---------------|----------------|---------------|----------------|

   Q  Q  E E E E  +E E Q  E E E E   Q  Q  E E E E  +E E Q  E E E E
1|---------------|----------------|-5--5--5-5-5---|----------------|
2|-7--7--7-7-7-3-|---3-3--3-3-3-3-|-------------5-|---5-5--5-5-5-5-|
3|---------------|----------------|---------------|----------------|
4|---------------|----------------|---------------|----------------|

   Q  Q  E E E E  +E E Q  E E E E   Q  Q  E E E E  +E E Q  E E E E
1|---------------|----------------|-5--5--5-5-5---|----------------|
2|-7--7--7-7-7-3-|---3-3--3-3-3-3-|-------------5-|---5-5--5-5-5-5-|
3|---------------|----------------|---------------|----------------|
4|---------------|----------------|---------------|----------------|


Chorus

   Q  Q  E E E E  +E E Q  E E E E   Q  Q  E E E E  +E E Q  E E E E
1|---------------|----------------|---------------|----------------|
2|---------------|----------------|---------------|----------------|
3|---------------|----------------|-3--3--3-3-3---|----------------|
4|-5--5--5-5-5-1-|---1-1--1-1-1-1-|-------------3-|---3-3--3-3-3-3-|

    Q  Q  E E E E  +E E Q  E E E E   Q  Q  E E E E  +E E Q  E E E E
1|---------------|----------------|---------------|----------------|
2|---------------|----------------|---------------|----------------|
3|---------------|----------------|-3--3--3-3-3---|----------------|
4|-5--5--5-5-5-1-|---1-1--1-1-1-1-|-------------3-|---3-3--3-3-3-3-|

    Q  Q  E E E E  +E E Q  E E E E   Q  Q  E E E E  +E E Q  E E E E
1|---------------|----------------|---------------|----------------|
2|---------------|----------------|---------------|----------------|
3|---------------|----------------|-3--3--3-3-3---|----------------|
4|-5--5--5-5-5-1-|---1-1--1-1-1-1-|-------------3-|---3-3--3-3-3-3-|

   Q  Q  E E E E  +E E Q  E E E E   Q  Q  E E E E  +E E Q  E E E E
1|---------------|----------------|---------------|----------------|
2|---------------|----------------|---------------|----------------|
3|---------------|----------------|-3--3--3-3-3---|----------------|
4|-5--5--5-5-5-1-|---1-1--1-1-1-1-|-------------3-|---3-3--3-3-3-3-|


Bridge

   Q  Q  E E E E  +E E Q  E E E E   Q  Q  E E E E  +E E Q  E E E E
1|---------------|----------------|-5--5--5-5-5-7-|---7-7--7-7-7-7-|
2|-7--7--7-7-7-3-|---3-3--3-3-3-3-|---------------|----------------|
3|---------------|----------------|---------------|----------------|
4|---------------|----------------|---------------|----------------|

   Q  Q  E E E E  +E E Q  E E E E   Q  Q  E E E E  +E E Q  E E E E
1|---------------|----------------|-5--5--5-5-5---|----------------|
2|-7--7--7-7-7-3-|---3-3--3-3-3-3-|-------------5-|---5-5--5-5-5-5-|
3|---------------|----------------|---------------|----------------|
4|---------------|----------------|---------------|----------------|

   Q  Q  E E E E  +E E Q  E E E E   Q  Q  E E E E  +E E Q  E E E E
1|---------------|----------------|-5--5--5-5-5---|----------------|
2|-7--7--7-7-7-3-|---3-3--3-3-3-3-|-------------5-|---5-5--5-5-5-5-|
3|---------------|----------------|---------------|----------------|
4|---------------|----------------|---------------|----------------|

   Q  Q  E E E E  +E E Q  E E E E   Q  Q  E E E E  +E E Q  E E E E
1|---------------|----------------|-5--5--5-5-5---|----------------|
2|-7--7--7-7-7-3-|---3-3--3-3-3-3-|-------------5-|---5-5--5-5-5-5-|
3|---------------|----------------|---------------|----------------|
4|---------------|----------------|---------------|----------------|

   Q  Q  E E E E  +E E Q  E E E E   Q  Q  E E E E  +E E Q  E E E E
1|---------------|----------------|-5--5--5-5-5---|----------------|
2|-7--7--7-7-7-3-|---3-3--3-3-3-3-|-------------5-|---5-5--5-5-5-5-|
3|---------------|----------------|---------------|----------------|
4|---------------|----------------|---------------|----------------|

   Q  Q  E E E E  +E E Q  E E E E   Q  Q  E E E E  +W
1|---------------|----------------|-5--5--5-5-5---|----------|
2|-7--7--7-7-7-3-|---3-3--3-3-3-3-|-------------5-|----------|
3|---------------|----------------|---------------|----------|
4|---------------|----------------|---------------|----------|


Chorus

   Q  Q  E E E E  +E E Q  E E E E   Q  Q  E E E E  +E E Q  E E E E
1|---------------|----------------|---------------|----------------|
2|---------------|----------------|---------------|----------------|
3|---------------|----------------|-3--3--3-3-3---|----------------|
4|-5--5--5-5-5-1-|---1-1--1-1-1-1-|-------------3-|---3-3--3-3-3-3-|

    Q  Q  E E E E  +E E Q  E E E E   Q  Q  E E E E  +E E Q  E E E E
1|---------------|----------------|---------------|----------------|
2|---------------|----------------|---------------|----------------|
3|---------------|----------------|-3--3--3-3-3---|----------------|
4|-5--5--5-5-5-1-|---1-1--1-1-1-1-|-------------3-|---3-3--3-3-3-3-|

    Q  Q  E E E E  +E E Q  E E E E   Q  Q  E E E E  +E E Q  E E E E
1|---------------|----------------|---------------|----------------|
2|---------------|----------------|---------------|----------------|
3|---------------|----------------|-3--3--3-3-3---|----------------|
4|-5--5--5-5-5-1-|---1-1--1-1-1-1-|-------------3-|---3-3--3-3-3-3-|

   Q  Q  E E E E  +E E Q  E E E E   Q  Q  E E E E  +E E Q  E E E E
1|---------------|----------------|---------------|----------------|
2|---------------|----------------|---------------|----------------|
3|---------------|----------------|-3--3--3-3-3---|----------------|
4|-5--5--5-5-5-1-|---1-1--1-1-1-1-|-------------3-|---3-3--3-3-3-3-|


Outro

   Q  Q  E E E E  +E E Q  E E E E   Q  Q  E E E E  +E E Q  E E E E
1|---------------|----------------|---------------|----------------|
2|-7--7--7-7-7-3-|---3-3--3-3-3-3-|-7--7--7-7-7-5-|---5-5--5-5-5-5-|
3|---------------|----------------|---------------|----------------|
4|---------------|----------------|---------------|----------------|

   Q  Q  E E E E  +E E Q  E E E E   Q  Q  E E E E  +W
1|---------------|----------------|---------------|----------|
2|-7--7--7-7-7-3-|---3-3--3-3-3-3-|-7--7--7-7-7-5-|----------|
3|---------------|----------------|---------------|----------|
4|---------------|----------------|---------------|----------|


W = Whole note
Q = Quarter note
E = Eighth note
+ = Tied note
comments
We did not receive enough feedback on this tab! Please rate:
print report bad tab
1 2 3 4 5
I want to post or [tab]
guest
You may want to rate the tab now too:
select rating
Please do not post tabs as comments. Select "correction" instead!