Oops, an error
Loading. Please wait.

The Backseat Bass Tab

version 1
version 1

Whole song

6,495 views 1 this week
1 commentread comment
1 2 3 4 5
x 4
add to favorites
launch autoscroll
font size
0
reset
guitar tuner
Autoscroll
slow
fast
+/-
esc
set tempo
stop
Help us to improve Ultimate-Guitar.com Take our survey!
×
Author
Band: Gaslight Anthem
Album: ’59 Sound
Song: The Backseat

My favourite song off the album

Tuning: Drop d

Intro

G|----------------------------------|
D|----------------------------------| 
A|-2222222200000000-----------------|
D|-----------------5555555500000000-|

G|----------------------------------|
D|-----------------5545554555454545-| He slides these notes back and forth
A|-2222222200000000-----------------|
D|----------------------------------|

Verse (0:14) x2

G|----------------------------------|
D|----------------------------------| 
A|-555555550000000022222222---------|
D|-------------------------55555555-|

G|----------------------------------|
D|-------------------------55555555-| 
A|-555555550000000022222222---------|
D|----------------------------------|

Pre-chorus (0:45)

G|----------------------------------|
D|----------------45-5-5-5-5-5-5-57-| 
A|-5-5-5-5-5-5-5-5------------------|
D|----------------------------------|

G|----------------------------------|
D|----------------45-5-5-5-5-5-5-5--| 
A|-5-5-5-5-5-5-5-5------------------|
D|----------------------------------|

Chorus (1:01)

G|----------------------------------|
D|-----------------5555555555555555-| 
A|-2222222200000000-----------------| x2
D|----------------------------------|

Verse (1:15) x2

G|----------------------------------|
D|----------------------------------| 
A|-555555550000000022222222---------|
D|-------------------------55555555-|

G|----------------------------------|
D|-------------------------55555555-| 
A|-555555550000000022222222---------|
D|----------------------------------|

Pre-chorus 1:47

G|----------------------------------|
D|----------------45555555555555555-|
A|-555555555555555------------------| x2
D|----------------------------------|

Chorus (2:02)

G|----------------------------------|
D|-----------------5555555555555555-| 
A|-2222222200000000-----------------| x2
D|----------------------------------|

Ending (2:16)

G|-------------------------66667777-|
D|-----------------77779999---------| 
A|----------------------------------|
D|-4444444455555555-----------------|

G|----------------------------------|
D|----------------------------------| 
A|----------------------------------|
D|-44444444555555557777777777777777-|

G|----------------------------------|
D|----------------45-5-5-5-5-5-5-57-| 
A|-5-5-5-5-5-5-5-5------------------| x6
D|----------------------------------|

G|----------------------------------|
D|----------------45555555555555557-|
A|-555555555555555------------------| x4
D|----------------------------------|

G|----------------------------------|
D|----------------------------------| 
A|-2222222200000000-----------------|
D|-----------------5555555555555555-|

G|-------------------------------------|
D|-----------------5555555555555555----| 
A|-2222222200000000-----------------5~-|
D|-------------------------------------|
Suggest correction
comments
print report bad tab
1 comment total.
0 reply
joshpunx 41 Sep 07, 2008 11:38 AM

perfect, really fun to play.

guest
You may want to rate the tab now too:
select rating
Wanna post a correction for this tab? Suggest correction