Oops, an error
Loading. Please wait.

The Backseat Bass Tab

version 2
version 2

Whole song

919 views 1 this week
no commentswrite comment
1 2 3 4 5
please rate
add to favorites
launch autoscroll
font size
0
reset
guitar tuner
Autoscroll
slow
fast
+/-
esc
set tempo
stop
Help us to improve Ultimate-Guitar.com Take our survey!
×
Author
-------------------------------------------------------------------------------
			     The Backseat - The Gaslight Anthem
-------------------------------------------------------------------------------

Tabbed By : David Ziemann
e-mail: david@janefool.eu

Tuning: D-A-D-G

Intro:
G|---------------------------------------------------------------------------|
D|---------------------------------------------------------------------------|
A|-2222222222222222----------------------------------------------------------|
D|-----------------000000000000000055555555555555554444444444444444----------|

G|---------------------------------------------------------------------------|
D|---------------------------------------------------------------------------|
A|-2222222222222222----------------------------------------------------------|
D|-----------------000000000000000055555555555555555555555555555555----------|

Verse:
G|---------------------------------------------------------------------------|
D|---------------------------------------------------------------------------|
A|-5-5-5-5-5-5-5-5-----------------2-2-2-2-2-2-2-2---------------------------|
D|-----------------7-7-7-7-7-7-7-7-----------------5-5-5-5-5-5-5-5-----------|

G|---------------------------------------------------------------------------|
D|---------------------------------------------------------------------------|
A|-5-5-5-5-5-5-5-5-----------------------------------------------------------|
D|-----------------7-7-7-7-7-7-7-7-9-9-9-9-9-9-9-9-/17-17-17-17-17-17-17-17--| x2

Breakdown:
G|---------------------------------------------------------------------------|
D|---------------0-4-5-5-5-5-5-5-5-5----------------0-4-5-5-5-5-5-5-5-5------|
A|-5-5-5-5-5-5-5---------------------5-5-5-5-5-5-5---------------------------|
D|---------------------------------------------------------------------------|

Chorus:
G|---------------------------------------------------------------------------|
D|---------------------------------------------------------------------------|
A|-2222222222222222----------------------------------------------------------|
D|-----------------000000000000000055555555555555555555555555555555----------|

G|---------------------------------------------------------------------------|
D|---------------------------------55555555555555555555555555555555----------|
A|-2222222222222222----------------------------------------------------------|
D|-----------------0000000000000000------------------------------------------|

Verse:
G|---------------------------------------------------------------------------|
D|---------------------------------------------------------------------------|
A|-5-5-5-5-5-5-5-5-----------------2-2-2-2-2-2-2-2---------------------------|
D|-----------------7-7-7-7-7-7-7-7-----------------5-5-5-5-5-5-5-5-----------|

G|---------------------------------------------------------------------------|
D|---------------------------------------------------------------------------|
A|-5-5-5-5-5-5-5-5-----------------------------------------------------------|
D|-----------------7-7-7-7-7-7-7-7-9-9-9-9-9-9-9-9-/17-17-17-17-17-17-17-17--| x2

Bridge:
G|---------------------------------------------------------------------------|
D|----------------------------------------------------5555555555555555-------|
A|-5555555555555555------------------5555555555555555------------------------|
D|------------------5555555555555555-----------------------------------------|

Verse:
G|---------------------------------------------------------------------------|
D|---------------------------------------------------------------------------|
A|-222222222222222-----------------------------------------------------------|
D|-----------------777777777777777-5555555555555555555555555555555-----------|

G|---------------------------------------------------------------------------|
D|---------------------------------------------------------------------------|
A|-222222222222222-----------------------------------------------------------|
D|-----------------777777777777777-17+---------------------------------------| (2:17)

Bridge:
G|---------------------------------------------------------------------------|
D|---------------------------------------------------------------------------|
A|---------------------------------7-7-7-7-9-9-9-9-10-10-10-10-12-12-12-12---
D|-4-4-4-4-4-4-4-4-5-5-5-5-5-5-5-5-------------------------------------------|

G|---------------------------------------------------------------------------|
D|---------------------------------------------------------------------------|
A|---------------------------------7-7-7-7-7-7-7-7/12-12-12-12-12-12-12-12---|
D|-4-4-4-4-4-4-4-4-5-5-5-5-5-5-5-5-------------------------------------------|

Silence
Breakdown(it meant nothing to me...):
G|---------------------------------------------------------------------------|
D|---------------0-4-5-5-5-5-5-5-5-5-----------------------------------------|
A|-5-5-5-5-5-5-5-------------------------------------------------------------|
D|---------------------------------------------------------------------------|5x

G|---------------------------------------------------------------------------|
D|----------------------------------------------------5555555555555555-------|
A|-5555555555555555------------------5555555555555555------------------------|
D|------------------5555555555555555-----------------------------------------|

Guitar Solo:
G|---------------------------------------------------------------------------|
D|----------------------------------------------------5555555555555555-------|
A|-5555555555555555------------------5555555555555555------------------------|
D|------------------5555555555555555-----------------------------------------|

then play either the Baseline or My Version

Baseline:
G|---------------------------------------------------------------------------|
D|----------------------------------------------------------------555555555--|
A|-22222222----------------------------22222222----------------------------5~|
D|---------77777777-5555555555555555------------77777777-555555555-----------|

My Version:
G|---------------------------------------------------------------------------|
D|---------------------------------------------------------------------------|
A|-22222245-------45-----------------2222245-77775555------------------------|
D|----------777777--5555444455557777-----------------5555554455557777/12~----|

| /  slide up
| ~  hold the tone
| +  continue to play this tone 16 times
===============================================================================
Suggest correction
Give kudos to tab author, rate the tab!
1 2 3 4 5
comments
print report bad tab
guest
You may want to rate the tab now too:
select rating
Please do not post tabs as comments. Select "correction" instead!