Oops, an error
Loading. Please wait.

The Patient Ferris Wheel Bass Tab

910 views 1 this week
no commentswrite comment
1 2 3 4 5
please rate
add to favorites
launch autoscroll
font size
0
reset
guitar tuner
Autoscroll
slow
fast
+/-
esc
set tempo
stop
Help us to improve Ultimate-Guitar.com Take our survey!
×
Author
Difficulty
novice
Intro
G|----------------------------|
D|----------------------------|
A|--55555-0000000-2222222222--|
E|----------------------------|

G|----------------------------|
D|----------------------------|
A|--55555-0000000-------------|
E|----------------3333333333--|
Both x2

Verse
G|----------------------------------------------|
D|----------------------------------------------|
A|--222222222-000000000------------55555555555--|
E|----------------------3333333333--------------| x2

Pre Chorus (I think)
G|-------------------------------------|
D|-------------------------------------|
A|--22-2-2-2------------------0-0-0-0--|
E|-----------2-2-2-2-33-3-3-3----------|

G|----------------------------------------|
D|----------------------------------------|
A|--22-2-2-2--------------------00000000--|
E|-----------2-2-2-2-33-3-3-3-3-----------|

Chorus
G|---------------------------------------------------------|
D|---------------------------------------------------------|
A|--55555555555-000000000000-22222222222222----------------|
E|------------------------------------------3333333333333--| x2

Bit After Chorus
G|-----------------------------|
D|-----------------------------|
A|--55555-0000000-22222222222--|
E|-----------------------------|

G|------------------------------|
D|------------------------------|
A|--55555-0000000---------------|
E|----------------333333333333--|

Verse
G|----------------------------------------------|
D|----------------------------------------------|
A|--222222222-000000000------------55555555555--|
E|----------------------3333333333--------------| x2

Pre Chorus (I think)
G|-------------------------------------|
D|-------------------------------------|
A|--22-2-2-2------------------0-0-0-0--|
E|-----------2-2-2-2-33-3-3-3----------|

G|----------------------------------------|
D|----------------------------------------|
A|--22-2-2-2--------------------00000000--|
E|-----------2-2-2-2-33-3-3-3-3-----------|

Chorus
G|---------------------------------------------------------|
D|---------------------------------------------------------|
A|--55555555555-000000000000-22222222222222----------------|
E|------------------------------------------3333333333333--| x2

Break
Although you can do this if you want, it sounds ok, but it's really a job for the lead
guitar, although who cares? Bass is superior :L
G|--12-12-12-11\9--|
D|-----------------|
A|-----------------|
E|-----------------| x2

G|--12-12-12-11\9\7--|
D|-------------------|
A|-------------------|
E|-------------------|

When Brian starts singing
G|--------------------------|
D|--------------------------|
A|--5~----0~-----2~---------|
E|----------------------3~--| x2

Chorus
G|---------------------------------------------------------|
D|---------------------------------------------------------|
A|--55555555555-000000000000-22222222222222----------------|
E|------------------------------------------3333333333333--| x2

Outro
G|-----------------------------------------------------------------------|
D|-----------------------------------------------------------------------|
A|--55-5-5-5-5-5-5-5-00-0-0-0-0-0-0-0-22-2-2-2-2-2-2-2-------------------|
E|-----------------------------------------------------33-3-3-3-3-3-3-3--|

G|------------------------------------------------------------------------|
D|------------------------------------------------------------------------|
A|--55-5-5-5-5-5-5-5-00-0-0-0-0-0-0-0-22-2-2-2-2-2-2-2-----------222-22---|
E|-----------------------------------------------------33-3-3-3-3---3--3--|

Here's a video of me doing all the things I told you to do: 
http://www.youtube.com/watch?v=LG1mJYmQIN0
Suggest correction
What's this?
You can suggest a correction to this tab. Community and Mods will review your correction and vote to approve or reject it.
comments
We did not receive enough feedback on this tab! Please rate:
print report bad tab
1 2 3 4 5
guest
You may want to rate the tab now too:
select rating
Please do not post tabs as comments. Select "correction" instead!