Oops, an error
Loading. Please wait.

We Came To Dance Bass Tab

3,066 views 1 this week
no commentswrite comment
1 2 3 4 5
2 more votes to show rating
add to favorites
launch autoscroll
font size
0
reset
guitar tuner
Autoscroll
slow
fast
+/-
esc
set tempo
stop
Help us to improve Ultimate-Guitar.com Take our survey!
×
Author
-------------------------------------------------------------------------------
			     We Came To Dance - The Gaslight Anthem
-------------------------------------------------------------------------------

Tabbed By : David Ziemann
e-mail: david@janefool.eu

Tuning: D-A-D-G

Intro:
G|---------------------------------------------------------------------------|
D|---------------------------------------------------------------------------|
A|--------------------5555555555555555-3333333333333333----------------------|
D|-2/5555555555555555--------------------------------------------------------|

G|---------------------------------------------------------------------------|
D|---------------------------------------------------------------------------|
A|-----------------------------------555555555555555-3333333333333333--------|
D|-2222222222222222-5555555555555555-----------------------------------------|

Silence (0:23 - 0:33)
Verse :
G|---------------------------------------------------------------------------|
D|---------------------------------------------------------------------------|
A|-----------------------------------555555555555555-3333333333333333--------|
D|-2222222222222222-5555555555555555-----------------------------------------|

Chorus :
G|---------------------------------------------------------------------------|
D|---------------------------------------------------------------------------|x
A|-------------------------------------5-55-5-55-55-5-55-3-33-3-33-33-3-33---|2
D|-2-22-2-22-22-2-22-5-55-5-55-55-5-55---------------------------------------|

Bridge (1:11) :
G|---------------------------------------------------------------------------|
D|---------------------------------------------------------------------------|
A|--------------------5555555555555555-3333333333333333----------------------|
D|-2/5555555555555555--------------------------------------------------------|

Verse :
G|---------------------------------------------------------------------------|
D|---------------------------------------------------------------------------|
A|------------------------------------5~---------------3~--------------------|
D|-2~---------------5~-------------------------------------------------------|

G|---------------------------------------------------------------------------|
D|---------------------------------------------------------------------------|
A|-----------------------------------555555555555555-3333333333333333--------|
D|-2222222222222222-5555555555555555-----------------------------------------|

Chorus :
G|---------------------------------------------------------------------------|
D|---------------------------------------------------------------------------|x
A|-------------------------------------5-55-5-55-55-5-55-3-33-3-33-33-3-33---|2
D|-2-22-2-22-22-2-22-5-55-5-55-55-5-55---------------------------------------|

Breakdown : (and if the ...)
G|---------------------------------------------------------------------------|
D|---------------------------------------------------------------------------|
A|-----------------------------------5~----------------3~--------------------|
D|-2~--------------5~--------------------------------------------------------|

G|---------------------------------------------------------------------------|
D|---------------------------------------------------------------------------|
A|---------------------------------------------5~5-55~-----------3~3-33~-----|
D|-2~--------2-22~-----------5~5-55~-----------------------------------------|

G|---------------------------------------------------------------------------|
D|---------------------------------------------------------------------------|
A|---------------------------------------------------------------------------|
D|-22222-(silence)-----------------------------------------------------------|

G|---------------------------------------------------------------------------|
D|---------------------------------------------------------------------------|
A|-----------------------------------555555555555555-33333333-3--------------|
D|-2222222222222222-5555555555555555-----------------------------------------|

Chorus (take care of the rhytm at the end) :
G|---------------------------------------------------------------------------|
D|---------------------------------------------------------------------------|
A|-----------------------------------555555555555555-3333333333333333--------|
D|-2222222222222222-5555555555555555-----------------------------------------|

G|---------------------------------------------------------------------------|
D|---------------------------------------------------------------------------|
A|-----------------------------------55--------55555-3333333333333333--------|
D|-2222222222222222-5555555555555555-----------------------------------------|

G|---------------------------------------------------------------------------|
D|---------------------------------------------------------------------------|
A|-----------------------------------555555555555555-3333333333333333--------|
D|-2222222222222222-5555555555555555-----------------------------------------|

| /  slide up
| ~  hold the tone
===============================================================================
Suggest correction
Give kudos to tab author, rate the tab!
1 2 3 4 5
comments
print report bad tab
guest
You may want to rate the tab now too:
select rating
Wanna post a correction for this tab? Suggest correction