Oops, an error
Loading. Please wait.

Cassis Bass Tab

version 2
version 2

Whole song

3,580 views 1 this week
no commentswrite comment
1 2 3 4 5
worth learning
x 2
add to favorites
launch autoscroll
font size
0
reset
guitar tuner
Tab Pro tools
  • play this tab
  • loop segment
  • change instrument
  • show fretboard
  • metronome
×
Best way to learn
"Cassis"
Autoscroll
slow
fast
+/-
esc
set tempo
stop
Difficulty
intermediate
The Gazette-Cassis

Bass Tablature

Tuning: DGCF (One step down)

Intro
E|----------------------------------------------------------------|
A|-4-----0------2------4-7--9-6---4----7-4-----------2------------|
D|----------------------------------------4-7--6--7-4-------------|
G|----------------------------------------------------------------|


E|----------------------------------| x4
A|-4-4-4-4-0-0-0-0-2-2-2-2--7-7-6-6-|
D|----------------------------------|
G|----------------------------------|

Verse I
E|--------------------------------4----------------0-4---4------------|
A|-4-----0------2------4-7--9-6-----4------7-0---------2----4---6-7-6-|
D|--------------------------------------------------------------------|
G|--------------------------------------------------------------------|

  --------------------------------4----------------0-4----------------|
  -4-----0------2------4-7--9-6-----4------7-0---------2--3--7-6------|
  --------------------------------------------------------------------|
  --------------------------------------------------------------------|


E|----------------------------------| x2
A|-4-4-4-4-0-0-0-0-2-2-2-2--7-7-6-6-|
D|----------------------------------|
G|----------------------------------|


E|----------------------------------|
A|-4-4-4-4-0-0-0-0-2-2-2-2--7-7-----|
D|------------------------------4-6-|
G|----------------------------------|


E|----------------------------------| x1
A|-4-4-4-4-0-0-0-0-2-2-2-2--7-7-6-6-|
D|----------------------------------|
G|----------------------------------|

Verse II
E|--------------------------------4----------------0-4---4------------|
A|-4-----0------2------4-7--9-6-----4------7-0---------2----4---6-7-6-|
D|--------------------------------------------------------------------|
G|--------------------------------------------------------------------|

  --------------------------------4----------------0-4----------------|
  -4-----0------2------4-7--9-6-----4------7-0---------2--3\11-11-9-7-|
  --------------------------------------------------------------------|
  --------------------------------------------------------------------|

Pre-Chorus
E|------------------------------------------------------------------|
A|-0-0-0-0-2-2-2-2-3-3-3-3-4-4-4-4-0-0-0-0-2-2-2-2-3-3-3-3-4\11-9-7-|
D|------------------------------------------------------------------|
G|------------------------------------------------------------------|

  ---------------------------------------------------------------------------------|
  -0-0-0-0-2-2-2-2-3-3-3-3-4-4-4-4-0-0-0-0-0-0-0-0-0-0-0-0-0-0-0-0-2-2-2-2-2-2-2-2-|
  ---------------------------------------------------------------------------------|
  ---------------------------------------------------------------------------------|

Bridge
E|4-0---------|
A|---2-3------|
D|------1-2-4-|
G|-----------1|

Chorus
E|-0-0-0-0-0-0-0-2-4-4-4-4-4-4-2-4-5-5-5-5-5-5-4-5-7-7-7-7------|
A|---------------------------------------------------------6-7-9|
D|--------------------------------------------------------------|
G|--------------------------------------------------------------|


E|-0-0-0-0-0-0-0-2-4-4-4-4-4-4-2-4-5-5-5-5-5-5-4-5-7-7-7-7-5-4--|
A|--------------------------------------------------------------|
D|--------------------------------------------------------------|
G|--------------------------------------------------------------|


E|-5-5-5----------------------5-5\------------------------------|
A|-------3-3-4-4\6-6-7-7-6-6------\12-3-3-4-4-3-3-2-2-1-1-------|
D|--------------------------------------------------------------|
G|--------------------------------------------------------------|


E|-5-5-5----------------------5-5\------------------------------|
A|-------3-3-4-4\6-6-7-7-6-6------\12-3-3\7-6-------------------|
D|--------------------------------------------------------------|
G|--------------------------------------------------------------|


E|----------------------------------|x3
A|-4-4-4-4-0-0-0-0-2-2-2-2--7-7-----|
D|------------------------------4-6-|
G|----------------------------------|


E|----------------------------------|
A|-4-4-4-4-0-0-0-0-2-2-2-2--7-7-7---|
D|----------------------------------|
G|----------------------------------|

(guitar solo)
(wait until 3:47)

Pre-Chorus
E|------------------------------------------------------------------|
A|-0-0-0-0-2-2-2-2-3-3-3-3-4-4-4-4-0-0-0-0-2-2-2-2-3-3-3-3-4\11-9-7-|
D|------------------------------------------------------------------|
G|------------------------------------------------------------------|

  ---------------------------------------------------------------------------------|
  -0-0-0-0-2-2-2-2-3-3-3-3-4-4-4-4-0-0-0-0-0-0-0-0-0-0-0-0-0-0-0-0-2-2-2-2-2-2-2-2-|
  ---------------------------------------------------------------------------------|
  ---------------------------------------------------------------------------------|

Bridge
E|4-0---------|
A|---2-3------|
D|------1-2-4-|
G|-----------1|

Chorus
E|-0-0-0-0-0-0-0-2-4-4-4-4-4-4-2-4-5-5-5-5-5-5-4-5-7-7-7-7------|
A|---------------------------------------------------------6-7-9|
D|--------------------------------------------------------------|
G|--------------------------------------------------------------|


E|-0-0-0-0-0-0-0-2-4-4-4-4-4-4-2-4-5-5-5-5-5-5-4-5-7-7-7-7-5-5--|
A|--------------------------------------------------------------|
D|--------------------------------------------------------------|
G|--------------------------------------------------------------|


E|-0-0-0-0-0-0-0-2-4-4-4-4-4-4-2-4-5-5-5-5-5-5-4-5-7-7-7-7------|
A|---------------------------------------------------------6-7-9|
D|--------------------------------------------------------------|
G|--------------------------------------------------------------|


E|-0-0-0-0-0-0-0-2-4-4-4-4-4-4-2-4-5-5-5-5-5-5-4-5-7-7-7--------------|
A|-------------------------------------------------------7-7-9-9-6-6--|
D|--------------------------------------------------------------------|
G|--------------------------------------------------------------------|


E|-0-0-0-0-0-------4-4-4-4-4-------5-5-5-5-5-------7-7-7-7-7-7-5-4----|x2
A|-----------7-7-9-----------7-7-9-----------7-7-9--------------------|
D|--------------------------------------------------------------------|
G|--------------------------------------------------------------------|

E|-5-5-5----------------------5-5\------------------------------|
A|-------3-3-4-4\6-6-7-7-6-6------\12-3-3-4-4-3-3-2-2-1-1-------|
D|--------------------------------------------------------------|
G|--------------------------------------------------------------|


E|-5-5-5----------------------5-5\------------------------------|
A|-------3-3-4-4\6-6-7-7-6-6------\12-3-3\7-9-------------------|
D|--------------------------------------------------------------|
G|--------------------------------------------------------------|

Ending (repeat until end)
E|-0-0-0-0-0-0-0-2-4-4-4-4-4-4-2-4-5-5-5-5-5-5-4-5-7-7-7-7------|
A|---------------------------------------------------------6-7-9|
D|--------------------------------------------------------------|
G|--------------------------------------------------------------|


E|-0-0-0-0-0-0-0-2-4-4-4-4-4-4-2-4-5-5-5-5-5-5-4-5-7-7-7-7-5-5--|
A|--------------------------------------------------------------|
D|--------------------------------------------------------------|
G|--------------------------------------------------------------|


Tabbed by HarshBassist

-my first tab :D
 took me quite a while tabbing this fun song
 HOPE YOU LIKE IT :D !!
comments
We did not receive enough feedback on this tab! Please rate:
print report bad tab
1 2 3 4 5
I want to post or [tab]
guest
You may want to rate the tab now too:
select rating
Please do not post tabs as comments. Select "correction" instead!