Oops, an error
Loading. Please wait.

Ganges Ni Akai Bara Bass Tab

version 1
version 1

Whole song

Interactive

401 views 1 this week
no commentswrite comment
1 2 3 4 5
please rate
add to favorites
launch autoscroll
font size
0
reset
guitar tuner
Tab Pro tools
  • play this tab
  • loop segment
  • change instrument
  • show fretboard
  • metronome
Autoscroll
slow
fast
+/-
esc
set tempo
stop
Contributor
Difficulty
Tuning
intermediate
D G C F A D
The GazettE - Ganges Ni Akai Bara

Tabbed by: XxThreeCheersxX
E-mail: phantomhiveghost@gmail.com

Tuning: D Standard (DGCF)

This song has a really fun moving bass line and solo.  The song is relatively 
fast, so it might take a while to get a good grasp of the song, but it’s worth it.

I’ve added dividers to make it easier to read and take apart and practice.

Intro I: (no bass)

Intro II: 
F|-----------------|-----------------|-----------------|-----------------|
C|-----2-0---0-----|-----2-0---------|-----------------|---2-2-0-0-------|
G|-0-3-----3---3-2-|---3-----3-2-3---|-------0-2-0---0-|-----------3-2-3-| x 2
D|-----------------|-3-------------3-|-1-1-3-------3---|-0---------------|

F|----------------|-----------------|-----------------|-----------------|
C|----------------|-----------------|-----------------|-----------------|
G|-0-0-00--0-0-3-0|-0-0-00--0-0-3-0-|-------------3---|-------------3---|
D|----------------|-----------------|-1-1-11--1-1---1-|-1-1-11--1-1---1-|

F|----------------|-----------------|-----------------|-------------------|
C|----------------|-----------------|-----------------|-------------------|
G|-0-0-00--0-0-3-0|-0-0-00--0-0-3-0-|-------------3---|-------------------|
D|----------------|-----------------|-1-1-11--1-1---1-|-3-3-3-34-4-4-4444-|

Verse I
F|-----------------|-----------------|-----------------|-----------------|
C|-----2-0---0-----|-----2-0---------|-----------------|---2-2-0-0-------|
G|-0-3-----3---3-2-|---3-----3-2-3---|-------0-2-0---0-|-----------3-2-3-| x 2
D|-----------------|-3-------------3-|-1-1-3-------3---|-0---------------|

F|-----------------|-----------------|-----------------|-----------------|
C|---------0-------|---------0-------|-----------------|-----------------|
G|-0-0-0-3---3-2-3-|-0-0-0-3---3-2-3-|-------------3---|-------------3---|
D|-----------------|-----------------|-1-1-11--1-1---1-|-1-1-11--1-1---1-|

F|-----------------|-----------------|-----------------|-------------------|
C|---------0-------|---------0-------|-----------------|-------------------|
G|-0-0-0-3---3-2-3-|-0-0-0-3---3-2-3-|-------------3---|-------------------|
D|-----------------|-----------------|-1-1-11--1-1---1-|-3-3-3-34-4-4-4444-|

Pre-Chorus
F|---------------|-----------------|-----------------|-----------------|
C|---------------|-----------------|-----------2-0---|-----0-02-20---0-|
G|----3----------|-0-0-0--0-00-0-0-|---------------3-|-0-0---------3---|
D|-1-1--1-0-00-3-|-------4---------|-1-11-1-0-0------|-----------------|

F|---------------|-----------------|-----------------|-----------------|
C|---------------|-----------------|-----------------|-----------------|
G|----3----------|-0-0-0--0-00-0-0-|-----------------|-2-2-2-2-----2---|
D|-1-1--1-0-00-3-|-------4---------|-1-1-1-11-11-3-1-|--------4-44---4-|

Chorus
F|-----------------|-----------------|-----------------|-----------------|
C|-----2-0---0-----|-----2-0---------|-----------------|-----------------|
G|-0-3-----3---3-2-|---3-----3-2-3---|-------0-2-0-----|-------0-2---2---| x 2
D|-----------------|-3-------------3-|-1-1-3-------3-1-|-0-0-3-----3-----|

Post-Chorus
F|-----------------|------------------|----------------|
C|-----------------|------------------|---3-3-32-0-----|
G|-3-3-2-32-0---20-|(0)-0-0---0-0-0---|------------3-2-|
D|------------4----|--------4-------3-|-1--------------|


Bass Solo (!)
F|-----------------|-----------------|-----------------|-----------------|
C|-----2----2-2/32-|-----2----2-20---|-----2----2-2/32-|-----3-32-2-020--|
G|-0-3---03--------|-0-3---03------2-|-0-3---03--------|---3-----------2-|
D|-----------------|-----------------|-----------------|-1---------------|

F|-----------------|-----------------|------------------|---9---7---------|
C|-----2----2-2/32-|-----2----2-2/32-|-3---3-33-3-3/5-3-|-----------------|
G|-0-3---03--------|-0-3---03--------|---3-------3------|-7---5---33-32-2-|
D|-----------------|-----------------|------------------|-----------------|

Guitar Solo
F|-----------------|-----------------|-----------------|-----------------|
C|-----2-0---0-----|-----2-0---------|-----------------|---2-2-0-0-------|
G|-0-3-----3---3-2-|---3-----3-2-3---|-------0-2-0---0-|-----------3-2-3-| x 2
D|-----------------|-3-------------3-|-1-1-3-------3---|-0---------------|

Pre-Chorus 2 (slight variation)
F|---------------|-----------------|-----------------|-----------------|
C|---------------|-----------------|-----------2-0---|-----0-02-20---0-|
G|----3----------|-0-0-0--0-00-0-0-|---------------3-|-0-0---------3---|
D|-1-1--1-0-00-3-|-------4---------|-1-11-1-0-0------|-----------------|

F|---------------|-----------------|-----------------|-----------------|
C|---------------|-----------------|-----------------|-----------------|
G|----3----------|-0-0-0--0-00-0-0-|-----------------|-2-2-2-2---------|
D|-1-1--1-0-00-3-|-------4---------|-1-1-1-1-1-1-3-1-|---------4-4-4-4-|

-Break-

Chorus 2 
F|-----------------|-----------------|-----------------|-----------------|
C|-----2-0---0-----|-----2-0---------|-----------------|-----------------|
G|-0-3-----3---3-2-|---3-----3-2-3---|-------0-2-0-----|-------0-2---2---| x 3
D|-----------------|-3-------------3-|-1-1-3-------3-1-|-0-0-3-----3-----|

F|-----------------|-----------------|-----------------|-----------------|
C|-----2-0---0-----|-----2-0---------|-----------------|-----------------|
G|-0-3-----3---3-2-|---3-----3-2-3---|-------0-2-0-----|-------0-2-0-3-2-| 
D|-----------------|-3-------------3-|-1-1-3-------3-1-|-0-0-3-----------|

Post-Chorus 2
F|-----------------|------------------|----------S|
C|-----------------|------------------|--------2-T|
G|-3-3-2-32-0---20-|(0)-0-0---0-0-0---|---3-3-3--O|
D|------------4----|--------4-------3-|-1--------P|

Outro
F|-----------------|-----------------|-----------------|-----------------|
C|-----2-0---0-----|-----2-0---------|-----------------|---2-2-0-0-------|
G|-0-3-----3---3-2-|---3-----3-2-3---|-------0-2-0---0-|-----------3-2-3-| x 3
D|-----------------|-3-------------3-|-1-1-3-------3---|-0---------------|

F|-----------------|-----------------|-----------------|-----------------|
C|-----2-0---0-----|-----2-0---------|-----------------|---2-2-00--------|
G|-0-3-----3---3-2-|---3-----3-2-3---|-------0-2-0---0-|----------33-233-| 
D|-----------------|-3-------------3-|-1-1-3-------3---|-0---------------|

If you have any corrections or suggestions, comment or leave me an email.
Happy playing!
comments
We did not receive enough feedback on this tab! Please rate:
print report bad tab
1 2 3 4 5
I want to post or [tab]
guest
You may want to rate the tab now too:
select rating
Please do not post tabs as comments. Select "correction" instead!