Oops, an error
Loading. Please wait.

Hanakotoba Tab

version 1
version 1

Solo

Interactive

1,038 views 3 this week
no commentswrite comment
1 2 3 4 5
please rate
add to favorites
launch autoscroll
font size
0
reset
how to read this tab
guitar tuner
Tab Pro tools
  • play this tab
  • loop segment
  • change instrument
  • show fretboard
  • metronome
×
Best way to learn
"Hanakotoba"
Autoscroll
slow
fast
+/-
esc
set tempo
stop
Contributor
the GazettE - Hanakotoba [Language of Flowers]

Tuning - Whole-step Down
Intro Acoustic
D|--------------------------------|     |-------0-------------0--------|    
A|----------------0-------------0-|     |-----0---0---------0---0------|
F|-----0------------0-----0-----0-|(4x) |---0-------0-----0-------0----|
C|-------0------2-----------0---2-|     |------------------------------|
G|---2-----2--3---------2-----2-3-|     |-3-----------3-2-----------2--|
D|-0------------------0-----------|     |------------------------------|

D|---------0----------------0--------------0--------------0--------0-|
A|-------0---0----------0-----0----------0---0----------0---0------0-|
F|-----0-------0------0---0-----0------0-------0------0-------0----0-|
C|------------------0----------------------------------------------2-|
G|---2-----------2-----------------2-3-----------3--2-----------2--3-|
D|-0-----------------------------------------------------------------|

Solo
D|-------------------------------------------------------------|
A|-----------------------------------15------------------------|
F|-0-12p11-9-7-------/12-11-14-12-12----12-11-12-14-12-11-12---|
C|-------------9-5-4-----------------------------------------4-|
G|-------------------------------------------------------------|
D|-------------------------------------------------------------|

D|------------------------------------------------------------------|
A|---8---10---7---8---7--------------------------------14-----------|
F|----------------------0-12p11-9-7-/12-12-11-14-12-12------//11-12-|
C|-9---9----9---9---9-----------------------------------------x--x--|
G|----------------------------------------------------------//9--10-|
D|------------------------------------------------------------------|
       .    .   .   .
I hope to have the whole song up soon, but only solo and intro for now...

************************************

| /   slide up
| \   slide down
| h   hammer-on
| p   pull-off
| ~   vibrato
| +   harmonic
| x   Mute note
| b   Bend
| pb  Pre-bend
| br  Bend release
| pbr Pre-bend release
| brb Bend release bend

************************************
comments
We did not receive enough feedback on this tab! Please rate:
print report bad tab
1 2 3 4 5
I want to post or [tab]
guest
You may want to rate the tab now too:
select rating
Please do not post tabs as comments. Select "correction" instead!