Oops, an error
Loading. Please wait.

Communist Eyes bass

version 1
version 1

Whole song

Interactive

1,088 views 9 this week
2 commentsread comments
1 2 3 4 5
1 last vote to show rating
add to favorites
×
Save as Personal and add changes to this tab that will be seen only by you. Learn more ›
×
You can save this tab as Personal to edit and correct it or add notes. All changes will be seen only by you. Learn more »
launch autoscroll
font size
0
reset
guitar tuner
backing track
0:00
0:00
edit
Autoscroll
slow
fast
+/-
esc
set tempo
stop
Author
Difficulty
The Germs
Communist Eyes

G---------5-7-----------------|
D-----5-7---------------------|              4 times
A--55-------------------------|
E------------66---------------|

G-----------------------------|
D-----------------------------|            4 times
A-----33--55--5555------------|
E--33-------------------------|


G--------------------------------------------|
D--------------------------------------------|
A--3---3333----1-1111------------------------|       (chorus) 2 times
E---------------------3--33--33--3333--------|


Do all that over again

G------------------------|
D------------------------|
A--55--5-4-3-22-222------|     4 times
E------------------------|

G-------------------------------|
D-------------------------------|
A--55--xxx--55---xxx---55---xxx-|
E-------------------------------|

Then 5 on A about 30-35 times and your done

            
            
Suggest correction
Creating personal tab
Creating personal tab
You can edit any tab online and save it as your Personal.

You can edit, replace or remove any tab part or add personal notes – all changes will be seen only by you.

Personal tabs can be accessed anytime from any device, even offline.
Learn more »
Give kudos to tab author, rate the tab!
1 2 3 4 5
comments
print report bad tab
2 comments total.
0 reply
waffuru 73 Jun 08, 2015 01:08 PM

Lack of formatting. Lack of accuracy. Tab incomplete. Clearly wrong. the intro is wrong, and it's missing the end of the song. the tab is also flipped as well. it should be improved or deleted.

guest
You may want to rate the tab now too:
select rating
Wanna post a correction for this tab? Suggest correction