Oops, an error
Loading. Please wait.

Communist Eyes Tab

version 1
version 1

Whole song

Interactive

3,328 views 3 this week
2 commentsread comments
1 2 3 4 5
x 8
add to favorites
launch autoscroll
font size
0
reset
how to read this tab
guitar tuner
backing track
0:00
0:00
×
Best way to learn
"Communist Eyes"
Autoscroll
slow
fast
+/-
esc
set tempo
stop
song-communist eyes
artist-germs
album-(gi)/mia

x-mute strings

intro-

E----------------------|
B----------------------|
G-7-7-7-7-7------------|
D-7-7-7-7-7-8-8-8-8-8--|
A-5-5-5-5-5-8-8-8-8-8--|
E-----------6-6-6-6-6--|


im looking through communist eyes......

E----------------|
B----------------|
G-----5-7-7-7-7--|
D-5-5-5-7-7-7-7--|
A-5-5-3-5-5-5-5--|
E-3-3------------|


its a double edge.....

E------------------------------|
B------------------------------|
G-5-5-5-5-3-3------------------|
D-5-5-5-5-3-3-5-5-5-5-5-5-5-5--|
A-3-3-3-3-1-1-5-5-5-5-5-5-5-5--|
E-------------3-3-3-3-3-3-3-3--|


middle-

E-------------------|
B-------------------|
G-7-7-7-7--4-4-4-4--| on this bit i think he slides from the D5 chord to the
D-7-7-7-7--4-4-4-4--| B5
A-5-5-5-5--2-2-2-2--|
E-------------------|


middle cont.-

E---------------|
B---------------|
G-7-7-xxxxxxxx--|
D-7-7-xxxxxxxx--|
A-5-5-xxxxxxxx--|
E---------------|

thats it! painfully simple.

any comments or suggestions for any PUNK songs you would like me to tab send
an email to gerbilgenitalia@yahoo.co.uk
Suggest correction
comments
print report bad tab
2 comments total.
+1 reply
emancrasher 140 Aug 02, 2004 08:00 PM

kk good tab just when it goes double edged it should go
E|----------------3-3-3-3-3-3-3-3|
A|3-3-3-3-1-1-1-1-5-5-5-5-5-5-5-5|
D|5-5-5-5-3-3-3-3-5-5-5-5-5-5-5-5|
G|5-5-5-5-3-3-3-3----------------|
ya
Good job
later

0 reply
ThrasherKid 10 May 02, 2007 06:08 PM

Hey, cool tab, its just that I emailed you and I thought you might want to know who that was coming from. Yeah, so above it has my username, and when I did that review for the Germicide album I was still unregistered. And If you like Black Flag could you help me out on making that Screw the Law Tab? I can't work out the intro. Email me at MadHatterKidz@hotmail.com
Laters

guest
You may want to rate the tab now too:
select rating
Wanna post a correction for this tab? Suggest correction