Oops, an error
Loading. Please wait.

Manimal tab

version 2
version 2

Whole song

324 views 1 this week
no commentswrite comment
1 2 3 4 5
1 last vote to show rating
add to favorites
×
Save as Personal and add changes to this tab that will be seen only by you. Learn more ›
×
You can save this tab as Personal to edit and correct it or add notes. All changes will be seen only by you. Learn more »
launch autoscroll
font size
0
reset
how to read this tab
guitar tuner
edit
Autoscroll
slow
fast
+/-
esc
set tempo
stop
Author
Hello Folks! today i propose you my cover "manimal" from the incredible Punk band "The Germs"!

you can trust me, this tab is garanted to be the best! i saw Pat Smear play it! 

watch me play if you doubt  : 

https://www.youtube.com/watch?v=s1kO4-a3ZUE

don't forget to rate me, tell me what do you think ,and if you need more information : Machine_sk8@hotmail.fr

Enjoy !

Intro:

E-0--0---------0----0-----------------|
B-2--0---------2----------------------|
G-2--0-1-------2----------------------|  
D-2--0-2-------2--2-------------------|  
A------2------------------------------|
E-------------------------------------|

On the A chord strum going from the E string to the A string

E-------------------------------------|
B-------------------------------------|
G-------------------------------------|  
D-------------------------------------|  repeat X2
A-0-0-0-0-2-----3-5-3-2---------------|
E-----------3-0-----------------------|


Verses:

.....IIIIIIIIIIII'M CAME INTO THIS...WOOOOOOOORLD

E----------------------5-5----------------------3-3--------|
B----------------------5-5----------------------3-3--------|
G----------------------6-6----------------------4-4--------|  
D----------------------7-7----------------------5-5--------|  repeat X2
A----------------------7-7----------------------5-5--------|
E-*5*5*5*5*5*5*5*5*5*5-5-5-3*3*3*3*3*3*3*3*3*3*-3-3--------|

E-5-5-5-5-5-5--3-3-3-3-3-3---------------------------------|
B-5-5-5-5-5-5--3-3-3-3-3-3---------------------------------|
G-6-6-6-6-6-6--4-4-4-4-4-4---------------------------------|  
D-7-7-7-7-7-7--5-5-5-5-5-5---------------------------------|  repeat X2
A-7-7-7-7-7-7--5-5-5-5-5-5---------------------------------|
E-5-5-5-5-5-5--3-3-3-3-3-3---------------------------------|

E-5-5-5-5-5-5--------------------3-3-------------------------|
B-5-5-5-5-5-5--------------------3-3-------------------------|
G-6-6-6-6-6-6--------------------4-4-------------------------|  
D-7-7-7-7-7-7--------------------5-5-------------------------|  
A-7-7-7-7-7-7--------------------5-5-------------------------|
E-5-5-5-5-5-5-*3*3*3*3*3*3*3*3*3-3-3-------------------------|

Outro :

E----------5/1----3/2-3/2-3/2--------------------------------|
B----------5/1----3/2-3/2-3/2--------------------------------|
G----------6/2----4/3-4/3-4/3--------------------------------|  
D----------7/3----5/4-5/4-5/4--------------------------------|  repeat X4
A----------7/3----5/4-5/4-5/4--------------------------------|
E-*5*5*5*5-5/1----3/2-3/2-3/2--------------------------------|


Verses :

E----------------------5-5----------------------3-3--------|
B----------------------5-5----------------------3-3--------|
G----------------------6-6----------------------4-4--------|  
D----------------------7-7----------------------5-5--------|  repeat X2
A----------------------7-7----------------------5-5--------|
E-*5*5*5*5*5*5*5*5*5*5-5-5-3*3*3*3*3*3*3*3*3*3*-3-3--------|

E-5-5-5-5-5-5--3-3-3-3-3-3---------------------------------|
B-5-5-5-5-5-5--3-3-3-3-3-3---------------------------------|
G-6-6-6-6-6-6--4-4-4-4-4-4---------------------------------|  
D-7-7-7-7-7-7--5-5-5-5-5-5---------------------------------|  repeat X2
A-7-7-7-7-7-7--5-5-5-5-5-5---------------------------------|
E-5-5-5-5-5-5--3-3-3-3-3-3---------------------------------|

E-5-5-5-5-5-5--------------------3-3-------------------------|
B-5-5-5-5-5-5--------------------3-3-------------------------|
G-6-6-6-6-6-6--------------------4-4-------------------------|  
D-7-7-7-7-7-7--------------------5-5-------------------------|  
A-7-7-7-7-7-7--------------------5-5-------------------------|
E-5-5-5-5-5-5-*3*3*3*3*3*3*3*3*3-3-3-------------------------|

E----------5/1----3/2-3/2-3/2--------------------------------|
B----------5/1----3/2-3/2-3/2--------------------------------|
G----------6/2----4/3-4/3-4/3--------------------------------|  
D----------7/3----5/4-5/4-5/4--------------------------------|  repeat X4
A----------7/3----5/4-5/4-5/4--------------------------------|
E-*5*5*5*5-5/1----3/2-3/2-3/2--------------------------------|

Outro: 

AHHHHHHHHHHHHHHHHHHHHHHHHHHHHHHHHHHHHHHH

E------------------------------------------------------------|
B------------------------------------------------------------|
G-2-2-4------5-7-5-------------------------------------------|  
D-2-2-4-5-2--5-7-5-------------------------------------------|  repeat X4
A-----2-5-2--3-5-3-------------------------------------------|
E-------3----------------------------------------------------|

End...

E----------5/1----3/2-3/2-3/2--------------------------------|
B----------5/1----3/2-3/2-3/2--------------------------------|
G----------6/2----4/3-4/3-4/3--------------------------------|  
D----------7/3----5/4-5/4-5/4--------------------------------|  repeat X4
A----------7/3----5/4-5/4-5/4--------------------------------|
E-*5*5*5*5-5/1----3/2-3/2-3/2--------------------------------|


E------------------------------------------------------------|
B------------------------------------------------------------|
G------------------------------------------------------------|  
D------------------------------------------------------------|  
A-0-0-2----3-5-3-2-------------------------------------------|
E-------3-0--------------------------------------------------|


https://www.youtube.com/watch?v=OqNJcrmh91o

            
            
Suggest correction
Creating personal tab
Creating personal tab
You can edit any tab online and save it as your Personal.

You can edit, replace or remove any tab part or add personal notes – all changes will be seen only by you.

Personal tabs can be accessed anytime from any device, even offline.
Learn more »
Give kudos to tab author, rate the tab!
1 2 3 4 5
comments
print report bad tab
guest
You may want to rate the tab now too:
select rating
Wanna post a correction for this tab? Suggest correction