Oops, an error
Loading. Please wait.

Now I Hear The Laughter tab

43 views 1 this week
no commentswrite comment
1 2 3 4 5
3 more votes to show rating
add to favorites
×
Save as Personal and add changes to this tab that will be seen only by you. Learn more ›
×
You can save this tab as Personal to edit and correct it or add notes. All changes will be seen only by you. Learn more »
launch autoscroll
font size
0
reset
how to read this tab
guitar tuner
edit
Autoscroll
slow
fast
+/-
esc
set tempo
stop
Author
Intro

Bass (Lorna Doom) :

G-----------------------------|
D-----------------------------|
A---------3-3-4-4-------------| repeat X2
E-0-0-0-0---------------------|

Verses:

Guitar (Pat smear):

E-0-0-0-0-3-3-4-4---0--------------|
B-0-0-0-0-4-4-5-5---0--------------|
G-1-1-1-1-5-5-6-6---1-(let it ring)|  
D-2-2-2-2-5-5-6-6-2-2--------------| 
A-2-2-2-2-3-3-4-4-2-2--------------|
E---------3-3-4-4-0----------------|

Bass (Lorna Doom) :                        Walkin' down the long road

G-----------------------------|
D-----------------------------|
A---------3-3-4-4-------------|repeat X2
E-0-0-0-0---------------------|

Guitar (Pat smear):

E-0-0-0-0-3-3-4-4---0--------------|
B-0-0-0-0-4-4-5-5---0--------------|
G-1-1-1-1-5-5-6-6---1-(let it ring)|  
D-2-2-2-2-5-5-6-6-2-2--------------| 
A-2-2-2-2-3-3-4-4-2-2--------------|
E---------3-3-4-4-0----------------|

Bass (Lorna Doom) :                       Ran into a strange man

G-----------------------------|
D-----------------------------|
A---------3-3-4-4-------------| repeat X2
E-0-0-0-0---------------------|



Guitar (Pat smear):

E-0-0-0-0-3-3-4-4-------------------|
B-0-0-0-0-4-4-5-5-------------------|
G-1-1-1-1-5-5-6-6-------------------|  
D-2-2-2-2-5-5-6-6-------------------| 
A-2-2-2-2-3-3-4-4-------------------|
E---------3-3-4-4-------------------|

Bass (Lorna Doom) :                       Said he thought he'd borrowed

G-----------------------------|
D-----------------------------|
A---------3-3-4-4-------------| 
E-0-0-0-0---------------------|



Guitar (Pat smear):

E-0-0-0-0-3-3-4-4-------------------|
B-0-0-0-0-4-4-5-5-------------------|
G-1-1-1-1-5-5-6-6-------------------|  
D-2-2-2-2-5-5-6-6-------------------| 
A-2-2-2-2-3-3-4-4-------------------|
E---------3-3-4-4-------------------|

Bass (Lorna Doom) :                       Bought himself a game plan

G-----------------------------|
D-----------------------------|
A---------3-3-4-4-------------| 
E-0-0-0-0---------------------|



Guitar (Pat smear):

E-0-0-0-0-3-3-4-4-------------------|
B-0-0-0-0-4-4-5-5-------------------|
G-1-1-1-1-5-5-6-6-------------------|  
D-2-2-2-2-5-5-6-6-------------------| 
A-2-2-2-2-3-3-4-4-------------------|
E---------3-3-4-4-------------------|

Bass (Lorna Doom) :                        Shook my head and nodded

G-----------------------------|
D-----------------------------|
A---------3-3-4-4-------------| 
E-0-0-0-0---------------------|



Guitar (Pat smear):

E-0-0-0-0-4-4-5-5-------------------|
B-0-0-0-0-4-4-5-5-------------------|
G-1-1-1-1-5-5-6-6-------------------|  
D-2-2-2-2-6-6-7-7-------------------|  
A-2-2-2-2-6-6-7-7-------------------|
E---------4-4-5-5-------------------|

Bass (Lorna Doom) :                       That's all I ever plotted

G-----------------------------|
D-----------------------------|
A---------4-4-5-5-------------| 
E-0-0-0-0---------------------|


Guitar (Pat smear):

E-0-0-0-0-4-4-5-5-------------------|
B-0-0-0-0-5-5-6-6-------------------|
G-1-1-1-1-6-6-7-7-------------------|  
D-2-2-2-2-6-6-7-7-------------------|  
A-2-2-2-2-4-4-5-5-------------------|
E---------4-4-5-5-------------------|

Bass (Lorna Doom) :                       That's all they ever wanted

G-----------------------------|
D-----------------------------|
A---------4-4-5-5-------------| 
E-0-0-0-0---------------------|


Guitar (Pat smear):

E-0-0-0-0-4-4-5-5-------------------|
B-0-0-0-0-5-5-6-6-------------------|
G-1-1-1-1-6-6-7-7-------------------|  
D-2-2-2-2-6-6-7-7-------------------|  
A-2-2-2-2-4-4-5-5-------------------|
E---------4-4-5-5-------------------|

Bass (Lorna Doom) :                       That's all they ever saw then

G-----------------------------|
D-----------------------------|
A---------4-4-5-5-------------| 
E-0-0-0-0---------------------|



Guitar (Pat smear):

E-0-0-0-0-4-4-5-5-------------------|
B-0-0-0-0-5-5-6-6-------------------|
G-1-1-1-1-6-6-7-7-------------------|  
D-2-2-2-2-6-6-7-7-------------------|  
A-2-2-2-2-4-4-5-5-------------------|
E---------4-4-5-5-------------------|

Bass (Lorna Doom) :                       Pulled myself together

G-----------------------------|
D-----------------------------|
A---------4-4-5-5-------------| 
E-0-0-0-0---------------------|


Guitar (Pat smear):

E-0-0-0-0-4-4-5-5-------------------|
B-0-0-0-0-5-5-6-6-------------------|
G-1-1-1-1-6-6-7-7-------------------|  
D-2-2-2-2-6-6-7-7-------------------|  
A-2-2-2-2-4-4-5-5-------------------|
E---------4-4-5-5-------------------|

Bass (Lorna Doom) :                       Laughter forever

G-----------------------------|
D-----------------------------|
A---------4-4-5-5-------------| 
E-0-0-0-0---------------------|


Chorus:

Guitar (Pat smear):

E-5-5-5-5--2-2--3-3--5-5-5-5-5-5-5-5-5-5-5-5-5----|
B-5-5-5-5--2-2--3-3--5-5-5-5-5-5-5-5-5-5-5-5-5----|
G-6-6-6-6--3-3--4-4--6-6-6-6-6-6-6-6-6-6-6-6-6----|  
D-7-7-7-7--4-4--5-5--7-7-7-7-7-7-7-7-7-7-7-7-7----|  
A-7-7-7-7--4-4--5-5--7-7-7-7-7-7-7-7-7-7-7-7-7----|
E-5-5-5-5--2-2--3-3--5-5-5-5-5-5-5-5-5-5-5-5-5----|

Bass (Lorna Doom) :                                   Now I hear the laughter

G-------------------------------------|
D-------------------------------------|
A-------------------------------------| 
E-5-5-5-5-2-2-3-3---5-5-5-5-5-5-5-5---|

Guitar (Pat smear):

E-5-5-5-5--2-2--3-3--5-5-5-5-5-5-5-5-5-5-5-5-5----|
B-5-5-5-5--2-2--3-3--5-5-5-5-5-5-5-5-5-5-5-5-5----|
G-6-6-6-6--3-3--4-4--6-6-6-6-6-6-6-6-6-6-6-6-6----|  
D-7-7-7-7--4-4--5-5--7-7-7-7-7-7-7-7-7-7-7-7-7----|  
A-7-7-7-7--4-4--5-5--7-7-7-7-7-7-7-7-7-7-7-7-7----|
E-5-5-5-5--2-2--3-3--5-5-5-5-5-5-5-5-5-5-5-5-5----|

Bass (Lorna Doom) :                                   Now I hear the laughter

G-------------------------------------|
D-------------------------------------|
A-------------------------------------| 
E-5-5-5-5-2-2-3-3---5-5-5-5-5-5-5-5---|

Now I hear the laughter

Guitar (Pat smear):

E-5-5-5-5--2-2--3-3--5-5-5-5-5-5-5-5-5-5-5-5-5----|
B-5-5-5-5--2-2--3-3--5-5-5-5-5-5-5-5-5-5-5-5-5----|
G-6-6-6-6--3-3--4-4--6-6-6-6-6-6-6-6-6-6-6-6-6----|  
D-7-7-7-7--4-4--5-5--7-7-7-7-7-7-7-7-7-7-7-7-7----|  
A-7-7-7-7--4-4--5-5--7-7-7-7-7-7-7-7-7-7-7-7-7----|
E-5-5-5-5--2-2--3-3--5-5-5-5-5-5-5-5-5-5-5-5-5----|

Bass (Lorna Doom) :                                   Now I hear the laughter 

G-------------------------------------|
D-------------------------------------|
A-------------------------------------| 
E-5-5-5-5-2-2-3-3---5-5-5-5-5-5-5-5---|

Guitar (Pat smear):

E-5-5-5-5--2-2--3-3--5-5-5-5-5-5-5-5-5-5-5-5-5----|
B-5-5-5-5--2-2--3-3--5-5-5-5-5-5-5-5-5-5-5-5-5----|
G-6-6-6-6--3-3--4-4--6-6-6-6-6-6-6-6-6-6-6-6-6----|  
D-7-7-7-7--4-4--5-5--7-7-7-7-7-7-7-7-7-7-7-7-7----|  
A-7-7-7-7--4-4--5-5--7-7-7-7-7-7-7-7-7-7-7-7-7----|
E-5-5-5-5--2-2--3-3--5-5-5-5-5-5-5-5-5-5-5-5-5----|

Bass (Lorna Doom) :                                    Now I hear the laughter

G-------------------------------------|
D-------------------------------------|
A-------------------------------------| 
E-5-5-5-5-2-2-3-3---5-5-5-5-5-5-5-5---|

restart until the end....

Now I hear the laughter!!!!!!!!


thank you everyone!


https://www.youtube.com/watch?v=aidSzMZhknw

            
            
Suggest correction
Creating personal tab
Creating personal tab
You can edit any tab online and save it as your Personal.

You can edit, replace or remove any tab part or add personal notes – all changes will be seen only by you.

Personal tabs can be accessed anytime from any device, even offline.
Learn more »
Give kudos to tab author, rate the tab!
1 2 3 4 5
comments
print report bad tab
guest
You may want to rate the tab now too:
select rating
Wanna post a correction for this tab? Suggest correction