Oops, an error
Loading. Please wait.

The One You Want tab

version 2
version 2

Whole song

718 views 1 this week
no commentswrite comment
1 2 3 4 5
3 more votes to show rating
add to favorites
×
Save as Personal and add changes to this tab that will be seen only by you. Learn more ›
×
You can save this tab as Personal to edit and correct it or add notes. All changes will be seen only by you. Learn more »
launch autoscroll
font size
0
reset
how to read this tab
guitar tuner
edit
Autoscroll
slow
fast
+/-
esc
set tempo
stop
Author
Just a rough tab that will can be fixed up a little bit to be better. Still its better
whatever's out there right now.
I didn't put the correct number of times to do the chords and a few other minor things
the time because I'm supposed to be writing an essay and I'm sure you guys can figure
out.

Start with this chord with an effect thing on it
E---
B---
G---
D-5-
A-5-
E-3-

Intro
E-----------------------------|
B----------*------------------|
G-7--------4----------------7-|
D-7--------4--------5--x2---7-|
A-5--------2--------5-------5-|
E-------------------3---------|
*-I'm not too sure about this chord

Verse
E-------------------------------------------------------------------------|
B-------------------------------------------------------------------------|
G--7-7------7-7---------7-7-----7-7---------------------------------------|
D--7-7------7-7---------7-7-----7-7--------5-5-----4-4------2-2-2-7-------|
A--5-5------4-4---------X-X-----X-X--------5-5-----4-4------2-2-2-7-------|
E-----------------------7-7-----5-5--------3-3-----2-2------0-0-0-5-------|

Prechorus
E-------------------------------------------------|
B-------------------------------------------------|
G-------------------------------------------------|
D--5----2--------5----2----------5----7-----------|
A--5----2--------5----2----------5----7-----------|
E--3----0--------3----0----------3----5-----------|

Chorus
E------------------------------------------------|
B------------------------------------------------|
G-------------------------------4----------------|
D--5-----4-----2-----4-----5----4----7-----------|
A--5-----4-----2-----4-----5----2----7-----------|
E--3-----2-----0-----2-----3---------5-----------|

Bridge
E------------------------------------|
B------------------------------------|
G-------4----------------------------|
D--4----4----2-----7-----------------|
A--4----2----2-----7-----------------|
E--2---------0-----5-----------------|
(the extreme basic parts, you can figure out what notes to play, its not that bad, or if
wants to figure that out for real, just make your own tab and feel free to copy as much
you want)

Ending
just switch between these two chords
E----------------|
B----------------|
G---7------------| (they might be all one fret up, i can't tell
D---7----5-------|  because my guitar is pretty out of tune
A---5----5-------|  right now)
E--------3-------|

and then
E---
B---
G---
D-7- x3
A-7-
E-5-


There you go. As i said, feel free to copy as much of this as you want and make a few
to make a better tab.

-Ryan

            
            
Suggest correction
Creating personal tab
Creating personal tab
You can edit any tab online and save it as your Personal.

You can edit, replace or remove any tab part or add personal notes – all changes will be seen only by you.

Personal tabs can be accessed anytime from any device, even offline.
Learn more »
Give kudos to tab author, rate the tab!
1 2 3 4 5
comments
print report bad tab
guest
You may want to rate the tab now too:
select rating
Wanna post a correction for this tab? Suggest correction