Oops, an error
Loading. Please wait.

If The Suspense Doesnt Kill Us Something Else Will tab

version 1
version 1

Whole song

1,201 views 1 this week
1 commentread comment
1 2 3 4 5
3 more votes to show rating
add to favorites
×
Save as Personal and add changes to this tab that will be seen only by you. Learn more ›
×
You can save this tab as Personal to edit and correct it or add notes. All changes will be seen only by you. Learn more »
launch autoscroll
font size
0
reset
how to read this tab
guitar tuner
edit
Autoscroll
slow
fast
+/-
esc
set tempo
stop
Figured out by Dan
Tabbed by Damo

Artist: The Getaway Plan
Album: Hold Conversation
Year: 2006
Song: If The Suspense Doesn't Kill Us, Something Else Will

Key: 
* = palm mute

 
Guitar 1
e--------------------------------------------------------------|
B--------------------------------------------------------------|
G--------------------------------------------------------------|            
D---88888----6----888888---6-444444------66666-----------------|
A----------4--------------4----------4-6-----------------------|
D--------------------------------------------------------------|


Guitar 1
e--------------------------------------------------------------|
B--------------------------------------------------------------|
G--------------------------------------------------------------|
D--8888888888888888--44444444--66666666------------------------|
A--8888888888888888--44444444--66666666------------------------|
D--8888888888888888--44444444--66666666------------------------|
                                    ***
Guitar 2
e---------------------------------------------------------------
B---------------------------------------------------------------
G--10-10-10-10-10-10-10-10--8-8--10-10--8-8--6-6--5-5--66666666-
D---------------------------------------------------------------
A--8--8--8--8--8--8--8--8---6-6--8--8---6-6--4-4--3-3--44444444-
D---------------------------------------------------------------

----------------------------------------------------------------|
----------------------------------------------------------------|
-8888888888-----------------------------------------------------|
----------------------------------------------------------------|
-6666666666-----------------------------------------------------|
----------------------------------------------------------------|
          

Guitar 1
e---------------------------------------------------------------|
B---------------------------------------------------------------|
G---------------------------------------------------------------|
D--8888888888888888--4--66666-----------------------------------|
A--8888888888888888--4--66666-----------------------------------|
D--8888888888888888--4--66666-----------------------------------|
                                    
Guitar 2
e---------------------------------------------------------------|
B---------------------------------------------------------------|
G--10-10-10-10-10-10-10-10--8-8--10-10--8-8--6-6--5-5--6--------|
D---------------------------------------------------------------|
A--8--8--8--8--8--8--8--8---6-6--8--8---6-6--4-4--3-3--4--------|
D---------------------------------------------------------------|


Guitar 1/2
e---------------------------------------------------------------|
B---------------------------------------------------------------|
G---------------------------------------------------------------|
D--8888888888888888--44444444--66666666-------------------------|
A--8888888888888888--44444444--66666666-------------------------|
D--8888888888888888--44444444--66666666-------------------------| 
                                    ***

e---------------------------------------------------------------|
B---------------------------------------------------------------|
G---------------------------------------------------------------|
D--8888888888888888--44444444--6666666--------------------------|
A--8888888888888888--44444444--6666666--------------------------|
D--8888888888888888--44444444--6666666--------------------------| 
                                    **

e---------------------------------------------------------------|
B---------------------------------------------------------------|
G---------------------------------------------------------------|
D--8888888888888888--44444444--66666666-------------------------|
A--8888888888888888--44444444--66666666-------------------------|
D--8888888888888888--44444444--66666666-------------------------| 
                                    ***

e---------------------------------------------------------------|
B---------------------------------------------------------------|
G---------------------------------------------------------------|
D--8888888888888888--4--666666666-------------------------------|
A--8888888888888888--4--666666666-------------------------------|
D--8888888888888888--4--666666666-------------------------------| 


e---------------------------------------------------------------
B---------------------------------------------------------------
G---------------------------------------------------------------
D--4-4-4-4-4-4-4-4--6-6-6-6-6-6-6-6--4-4-4-4-4-4-4-4--6-6-6-6-6-
A--4-4-4-4-4-4-4-4--6-6-6-6-6-6-6-6--4-4-4-4-4-4-4-4--6-6-6-6-6-
D--4-4-4-4-4-4-4-4--6-6-6-6-6-6-6-6--4-4-4-4-4-4-4-4--6-6-6-6-6-

6-6-6-----------------------------------------------------------|
6-6-6-----------------------------------------------------------|
6-6-6-----------------------------------------------------------|
6-6-6-----------------------------------------------------------|
6-6-6-----------------------------------------------------------|
6-6-6-----------------------------------------------------------|

Guitar 1
e---------------------------------------------------------------|
B---------------------------------------------------------------|
G---------------------------------------------------------------|
D--888888---6--888888----6--------------------------------------|
A---------4------------4----------------------------------------|
D---------------------------------------------------------------|


Guitar 1
e--------------------------------------------------------------|
B--------------------------------------------------------------|
G--------------------------------------------------------------|
D--8888888888888888--44444444--66666666------------------------|
A--8888888888888888--44444444--66666666------------------------|
D--8888888888888888--44444444--66666666------------------------|
                                    ***
Guitar 2
e---------------------------------------------------------------
B---------------------------------------------------------------
G--10-10-10-10-10-10-10-10--8-8--10-10--8-8--6-6--5-5--66666666-
D---------------------------------------------------------------
A--8--8--8--8--8--8--8--8---6-6--8--8---6-6--4-4--3-3--44444444-
D---------------------------------------------------------------

----------------------------------------------------------------|
----------------------------------------------------------------|
--8888888888----------------------------------------------------|
----------------------------------------------------------------|
--6666666666----------------------------------------------------|
----------------------------------------------------------------|

Guitar 1
e---------------------------------------------------------------|
B---------------------------------------------------------------|
G---------------------------------------------------------------|
D--8888888888888888--4--66666-----------------------------------|
A--8888888888888888--4--66666-----------------------------------|
D--8888888888888888--4--66666-----------------------------------|
                                    
Guitar 2
e---------------------------------------------------------------|
B---------------------------------------------------------------|
G--10-10-10-10-10-10-10-10--8-8--10-10--8-8--6-6--5-5--6--------|
D---------------------------------------------------------------|
A--8--8--8--8--8--8--8--8---6-6--8--8---6-6--4-4--3-3--4--------|
D---------------------------------------------------------------|


e---------------------------------------------------------------|
B---------------------------------------------------------------|
G---------------------------------------------------------------|
D-8888888888888888-44444444-66666666----------------------------|
A-8888888888888888-44444444-66666666----------------------------|
D-8888888888888888-44444444-66666666----------------------------|
  **************** ******** ********


e---------------------------------------------------------------|
B---------------------------------------------------------------|
G---------------------------------------------------------------|
D-8888888888888888-44444444-66666666----------------------------|
A-8888888888888888-44444444-66666666----------------------------|
D-8888888888888888-44444444-66666666----------------------------|
  ******* ***** ** *******  *******

Thats all I remember right now so yeah

            
            
Suggest correction
Creating personal tab
Creating personal tab
You can edit any tab online and save it as your Personal.

You can edit, replace or remove any tab part or add personal notes – all changes will be seen only by you.

Personal tabs can be accessed anytime from any device, even offline.
Learn more »
Give kudos to tab author, rate the tab!
1 2 3 4 5
comments
print report bad tab
1 comment total.
0 reply
wongacaster 90 Apr 01, 2008 04:41 AM

All of Hold Conversation was in drop Eb or D#(same this different name).

So this tab is in the wrong tuning.

Ill try and tba it out now in the correct tuning.
If i can be bothered.

guest
You may want to rate the tab now too:
select rating
Wanna post a correction for this tab? Suggest correction