Oops, an error
Loading. Please wait.

Move Along Chords

version 2
version 2

Whole song

Interactive

944 views 1 this week
1 commentread comment
1 2 3 4 5
please rate
add to favorites
launch autoscroll
font size
0
reset
transpose
0
reset
display chords
guitar tuner
Autoscroll
slow
fast
+/-
esc
set tempo
stop
Help us to improve Ultimate-Guitar.com Take our survey!
×
Author
Capo
1st fret
-------------------------------------------------------------------------------
                           Move Along - The Getaway Plan
-------------------------------------------------------------------------------
Tabbed by: Putricidal
E-mail: Bigcheesepie@gmail.com

Brilliant song by a brilliant band! Included solo tabs as well as chords,
just in case ;) They're pretty easy to play! Check down the bottom for them
<3

CAPO 1st FRET

Chords relative to capo
Solo not relative to capo

             Am            F            C
They've been carving your name out in stone.
          Am            F        C
Building stairways to lead you home.
               Am       F           C           E
Though there's room up above, I can tell you my love
       D             F
That I won't let you go.

SOLO 1
Am F C E X3
D F

          Am           F              C          E
There's a place in my heart where my courage is kept,
        Am         F             C          E 
And I'm keeping it there till my mind is at rest.
         Am         F          C            E       D   F
It's the one bit of power that I still have left in me?

         Am             F
Now this room is like a cage,
          C                 E
I've been stuck in here for days.
          Am             F
Searching deep inside my mind,
        C             E
Just to find a better place.
        Am          F
And I'm waiting for you
   C           E          D      F
To pick up the pieces and move along

          Am          F           C            E
There's a place on a street, in a town that I know,
          Am            F            C             E
Where the earth doesn't move and the grass doesn't grow.
          Am            F               C              E
There's a chill in the air that goes straight to your bones.
            D                                       F
I've got my hands in the ground and I'm digging you up.

         Am             F
Now this room is like a cage,
          C                 E
I've been stuck in here for days.
          Am             F
Searching deep inside my mind,
        C             E
Just to find a better place.
        Am          F
And I'm waiting for you
   C           E          D      F
To pick up the pieces and move along

SOLO 2
Am F C E X3
D F
         Am               F
When all colour starts to fade
        C              E
And the cage begins to break
          Am          F
I give my body to the skies,
        C                E
Now I'm standing at the gates.
        Am          F
And I'm waiting for you
   C           E          D       F
To pick up the pieces and move along.

         Am             F
Now this room is like a cage,
          C                 E
I've been stuck in here for days.
          Am             F
Searching deep inside my mind,
        C             E
Just to find a better place.
        Am          F
And I'm waiting for you
   C           E          D      F
To pick up the pieces and move along

--------
|Solo 1|
--------
e|--------------------------------------------------------------|
B|--------------------------------------------------------------|
G|-10---10-11----11-11--13-11-10---10--11---8-------------------|
D|----11--------11-------------------11------11-11-10h11-11-11--|
A|--------------------------------------------------------------|
E|--------------------------------------------------------------|

e|--------------------------------------------------------------|
B|--------------------------------------------------------------|
G|-10---10-11----11-11--13-11-10---10--11---8-------------------|
D|----11--------11-------------------11------11-11-10h11-11-11--|
A|--------------------------------------------------------------|
E|--------------------------------------------------------------|

e|------------------------------------------------------------------------|
B|------------------------------------------------------------------------|
G|-10-10-10------------11-11-11------------11-11-13-11-10-10-10-----------|
D|-------------11-11-11------------11-11-11---------------------11-11-11--|
A|------------------------------------------------------------------------|
E|------------------------------------------------------------------------|

e|--------------------------------------------|
B|--------------------------------------------|
G|-8-8-8-----------------------8--/10---------|
D|--------11-11-11-10h11-11-11--------10/11---|
A|--------------------------------------------|
E|--------------------------------------------|

--------
|Solo 2|
--------
e|-------------------------------------------------13-13-13-13-13-13--|
B|-14-14-14-11-11-11-14-14-14-11-11-11-11-11-11-11--------------------|
G|--------------------------------------------------------------------|
D|--------------------------------------------------------------------|
A|--------------------------------------------------------------------|
E|--------------------------------------------------------------------|

e|-------------------------------------------------13-13-13--------14-14-14-|
B|-13-13-13-13-13-13-13-13-13-13-13-13-13-13-13-13---------14-14-14---------|
G|--------------------------------------------------------------------------|
D|--------------------------------------------------------------------------|
A|--------------------------------------------------------------------------|
E|--------------------------------------------------------------------------|

e|--------14-14-16-14-13-----------16-------16-----16------16------16-----13|
B|14-14-14--------------13-14-13h14---13h14---13h14---13h14---13h14--13h14--|
G|--------------------------------------------------------------------------|
D|--------------------------------------------------------------------------|
A|--------------------------------------------------------------------------|
E|--------------------------------------------------------------------------|

e|14h16p14-13h14p13------------------------------------------------------|
B|-----------------13-14-14/16-16-16-16-16-16-16-16/19-19-19-19-19-19-19-|
G|-----------------------------------------------------------------------|
D|-----------------------------------------------------------------------|
A|-----------------------------------------------------------------------|
E|-----------------------------------------------------------------------|

e|----------------------------------------------|
B|19/20-20-20-20-20-20-20-20-20-20-20-20-20-20\-|
G|----------------------------------------------|
D|----------------------------------------------|
A|----------------------------------------------|
E|----------------------------------------------|
Suggest correction
What's this?
You can suggest a correction to this tab. Community and Mods will review your correction and vote to approve or reject it.
comments
We did not receive enough feedback on this tab! Please rate:
print report bad tab
1 2 3 4 5
1 comment total.
0 reply
BelBreathesRock 16 wrote on May 9 2016, 08:25 am

Hey, this is good. I hope you also love their new album: Dark Horses :)
the chords are good but I haven't played the solo yet. The tab's good, though.

guest
You may want to rate the tab now too:
select rating
Please do not post tabs as comments. Select "correction" instead!