Oops, an error
Loading. Please wait.

Strings tab

version 1
version 1

Whole song

2,519 views 1 this week
3 commentsread comments
1 2 3 4 5
1 last vote to show rating
add to favorites
×
Save as Personal and add changes to this tab that will be seen only by you. Learn more ›
×
You can save this tab as Personal to edit and correct it or add notes. All changes will be seen only by you. Learn more »
launch autoscroll
font size
0
reset
how to read this tab
guitar tuner
edit
Autoscroll
slow
fast
+/-
esc
set tempo
stop
Difficulty
easiest song to figure out by the greatest band in the world, but is nowhere on the net
so here it is..(check out my other submissions)


!!ALL STRINGS TUNED DOWN HALF STEP.. ALL FLATS!!

INTRO

e|---------------------------------------------------------------------------|
b|-55-5-55--77-7-77---88-8-88--77-7-77---88-8-88--77-7-77---88-8-88--77-7-77-|
g|-00-0-00--00-0-00---00-0-00--00-0-00---00-0-00--00-0-00---00-0-00--00-0-00-|
d|---------------------------------------------------------------------------|
a|-33-3-33--33-3-33---55-5-55--55-5-55---77-7-77--77-7-77---55-5-55--55-5-55-|
e|---------------------------------------------------------------------------|
 Draw these strings..  keep yourself..   inside..           ohh!!

e|---------------------------------------------------------------------------|
b|-55-5-55--77-7-77---88-8-88--77-7-77---88-8-88--77-7-77---88-8-88--77-7-77-|
g|-00-0-00--00-0-00---00-0-00--00-0-00---00-0-00--00-0-00---00-0-00--00-0-00-|
d|---------------------------------------------------------------------------|
a|-33-3-33--33-3-33---55-5-55--55-5-55---77-7-77--77-7-77---55-5-55--55-5-55-|
e|---------------------------------------------------------------------------|
 Don't just lie...    part your lips..   smile....          ohhh!

CHORUS  (easy pattern to follow, just listen to thesong for timing)

e|------------------------------------------------------------------------|
b|-5-------------------7-----------------8---------------7----------------|
g|-0-------------------0-----------------0---------------0----------------|
d|------------------------------------------------------------------------|
a|-3-------------------5-----------------7---------------7----------------|
e|------------------------------------------------------------------------|
  So you're dimming..  Glowing inside..  Words exploding, Just like poems..

e|----------------------------------------------------------10-----------|
b|-5-----------------------7-----------------8---------------8-----------|
g|-0-----------------------0-----------------0---------------0-----------|
d|-----------------------------------------------------------------------|
a|-3-----------------------5-----------------7---------------7-----------|
e|-----------------------------------------------------------------------|
Carve them in sone so our love can't be torn appart...


VERSE


e|---------------------------------------------------------------------------|
b|-55-5-55--77-7-77---88-8-88--77-7-77---88-8-88--77-7-77---88-8-88--77-7-77-|
g|-00-0-00--00-0-00---00-0-00--00-0-00---00-0-00--00-0-00---00-0-00--00-0-00-|
d|---------------------------------------------------------------------------|
a|-33-3-33--33-3-33---55-5-55--55-5-55---77-7-77--77-7-77---55-5-55--55-5-55-|
e|---------------------------------------------------------------------------|


e|---------------------------------------------------------------------------|
b|-55-5-55--77-7-77---88-8-88--77-7-77---88-8-88--77-7-77---88-8-88--77-7-77-|
g|-00-0-00--00-0-00---00-0-00--00-0-00---00-0-00--00-0-00---00-0-00--00-0-00-|
d|---------------------------------------------------------------------------|
a|-33-3-33--33-3-33---55-5-55--55-5-55---77-7-77--77-7-77---55-5-55--55-5-55-|
e|---------------------------------------------------------------------------|
   Past this black..  lies perfections.. eyes..         ohh!!

e|---------------------------------------------------------------------------|
b|-55-5-55--77-7-77---88-8-88--77-7-77---88-8-88--77-7-77---88-8-88--77-7-77-|
g|-00-0-00--00-0-00---00-0-00--00-0-00---00-0-00--00-0-00---00-0-00--00-0-00-|
d|---------------------------------------------------------------------------|
a|-33-3-33--33-3-33---55-5-55--55-5-55---77-7-77--77-7-77---55-5-55--55-5-55-|
e|---------------------------------------------------------------------------|
  This perfection..   Is   Rightfully..   Mine...        ohh!

CHORUS x2

e|------------------------------------------------------------------------|
b|-5-------------------7-----------------8---------------7----------------|
g|-0-------------------0-----------------0---------------0----------------|
d|------------------------------------------------------------------------|
a|-3-------------------5-----------------7---------------7----------------|
e|------------------------------------------------------------------------|
  So you're dimming..  Glowing inside..  Words exploding, Just like poems..

e|----------------------------------------------------------10-----------|
b|-5-----------------------7-----------------8---------------8-----------|
g|-0-----------------------0-----------------0---------------0-----------|
d|-----------------------------------------------------------------------|
a|-3-----------------------5-----------------7---------------7-----------|
e|-----------------------------------------------------------------------|
Carve them in sone so our love can't be torn appart...


OUTRO  ?????

This is all i have soo far, i hope you all enjoy!

xoxo Nick.


(if anyone knows the correct outro for this amazing song please e-mail it to me at
frailty-of-words@hotmail.com)

            
            
Suggest correction
Creating personal tab
Creating personal tab
You can edit any tab online and save it as your Personal.

You can edit, replace or remove any tab part or add personal notes – all changes will be seen only by you.

Personal tabs can be accessed anytime from any device, even offline.
Learn more »
Give kudos to tab author, rate the tab!
1 2 3 4 5
comments
print report bad tab
3 comments total.
0 reply
R-Man 20 Jun 22, 2009 01:29 AM

this is the best tab, the rest are ridiculous!!
thanks nick :D

0 reply
Muzak 10 Sep 10, 2009 04:15 PM

yeah. beats all the others. nice work :)

0 reply
SingItSimone! 10 Apr 25, 2010 11:32 PM

THANKYOUUUUUUUUU!!! ♥

guest
Wanna post a correction for this tab? Suggest correction