Oops, an error
Loading. Please wait.

Scary Mother Mary tab

87 views 1 this week
no commentswrite comment
1 2 3 4 5
3 more votes to show rating
add to favorites
×
Save as Personal and add changes to this tab that will be seen only by you. Learn more ›
×
You can save this tab as Personal to edit and correct it or add notes. All changes will be seen only by you. Learn more »
launch autoscroll
font size
0
reset
how to read this tab
guitar tuner
edit
Autoscroll
slow
fast
+/-
esc
set tempo
stop
scary mother mary


the ghost dinner band


TRANSCRIBED BY RUDY GUZMAN


guzman_84@hotmail.com

e:-------------------------------------------|
B:-3-3--3-3--3-3-3--3-3--3-3-3--3-3--3-3-3---|
G:-2-2--0h2--2-2-2--0h2--2-2-2--0h2--2-2-2---|
D:-0-0--0-0--0-0-0--0-0--0-0-0--0-0--0-0-0---|
A:-----------------------------------------3-|
E:-------------------------------------------|

e:----------------------------------------------|
B:-3-3--3-3--3-3-3--3-3--3-3-3--3-3--3-3-3------|
G:-2-2--0h2--2-2-2--0h2--2-2-2--0h2--2-2-2------|
D:-0-0--0-0--0-0-0--0-0--0-0-0--0-0--0-0-0--3-2-|
A:----------------------------------------------|
E:----------------------------------------------|

verse
e:-------------------------------------------|
B:-3-3--3-3--3-3-3--3-3--3-3-3--3-3--3-3-3---|
G:-2-2--0h2--2-2-2--0h2--2-2-2--0h2--2-2-2---|
D:-0-0--0-0--0-0-0--0-0--0-0-0--0-0--0-0-0---|
A:-----------------------------------------3-|
E:-------------------------------------------|

e:--------------------------------------------------------------|
B:-3-3--3-3--3-3-3--3-3--3-3-3--3-3--3-3-3-3-3-3-3-3-3--3-3-3-3-|
G:-2-2--0h2--2-2-2--0h2--2-2-2--0h2--2-2-2-0-0-0-0-0-0--0-0-0-0-|
D:-0-0--0-0--0-0-0--0-0--0-0-0--0-0--0-0-0-2-2-2-2-2-2--0-0-0-0-|
A:-----------------------------------------3-3-3-3-3-3--2-2-2-2-|
E:--------------------------------------------------------------|

e:-------------------------------------------|
B:-3-3--3-3--3-3-3--3-3--3-3-3--3-3--3-3-3---|
G:-2-2--0h2--2-2-2--0h2--2-2-2--0h2--2-2-2---|
D:-0-0--0-0--0-0-0--0-0--0-0-0--0-0--0-0-0---|
A:-----------------------------------------3-|
E:-------------------------------------------|

e:----------------------------------------------|
B:-3-3--3-3--3-3-3--3-3--3-3-3--3-3--3-3-3------|
G:-2-2--0h2--2-2-2--0h2--2-2-2--0h2--2-2-2------|
D:-0-0--0-0--0-0-0--0-0--0-0-0--0-0--0-0-0--3-2-|
A:----------------------------------------------|
E:----------------------------------------------|

e:-------------------------------------------|
B:-3-3--3-3--3-3-3--3-3--3-3-3--3-3--3-3-3---|
G:-2-2--0h2--2-2-2--0h2--2-2-2--0h2--2-2-2---|
D:-0-0--0-0--0-0-0--0-0--0-0-0--0-0--0-0-0---|
A:-----------------------------------------3-|
E:-------------------------------------------|

e:--------------------------------------------------------------|
B:-3-3--3-3--3-3-3--3-3--3-3-3--3-3--3-3-3-3-3-3-3-3-3--3-3-3-3-|
G:-2-2--0h2--2-2-2--0h2--2-2-2--0h2--2-2-2-0-0-0-0-0-0--0-0-0-0-|
D:-0-0--0-0--0-0-0--0-0--0-0-0--0-0--0-0-0-2-2-2-2-2-2--0-0-0-0-|
A:-----------------------------------------3-3-3-3-3-3--2-2-2-2-|
E:--------------------------------------------------------------|

e:----------------------------------------------|
B:-3-3--3-3--3-3-3--3-3--3-3-3--3-3--3-3-3------|
G:-2-2--0h2--2-2-2--0h2--2-2-2--0h2--2-2-2------|
D:-0-0--0-0--0-0-0--0-0--0-0-0--0-0--0-0-0--3-2-|
A:----------------------------------------------|
E:----------------------------------------------|

e:-------------------------------------------|
B:-3-3--3-3--3-3-3--3-3--3-3-3--3-3--3-3-3---|
G:-2-2--0h2--2-2-2--0h2--2-2-2--0h2--2-2-2---|
D:-0-0--0-0--0-0-0--0-0--0-0-0--0-0--0-0-0---|
A:-----------------------------------------3-|
E:-------------------------------------------|

 chorus
gt1
e:-----------1-1-1-1-1--3-3-3-3-3--------------|
B:-3-3-3-3-3-1-1-1-1-1--3-3-3-3-3--3-3-3-3-3---|
G:-2-2-2-2-2-2-2-2-2-2--0-0-0-0-0--2-2-2-2-2---|
D:-0-0-0-0-0-3-3-3-3-3--0-0-0-0-0--0-0-0-0-0---|
A:-----------3-3-3-3-3--2-2-2-2-2------------3-|
E:-----------1-1-1-1-1--3-3-3-3-3--------------|
gt2
e:---------------------------------------------|
B:---------------------------------------------|
G:-7-7-7-7-7-----------------------7-7-7-7-7---|
D:-7-7-7-7-7-3-3-3-3-3--5-5-5-5-5--7-7-7-7-7---|
A:-5-5-5-5-5-3-3-3-3-3--5-5-5-5-5--5-5-5-5-5---|
E:-----------1-1-1-1-1--3-3-3-3-3------------8-|

gt1
e:-----------1-1-1-1-1--3-3-3-3-3----------------|
B:-3-3-3-3-3-1-1-1-1-1--3-3-3-3-3--3-3-3-3-3-----|
G:-2-2-2-2-2-2-2-2-2-2--0-0-0-0-0--2-2-2-2-2-----|
D:-0-0-0-0-0-3-3-3-3-3--0-0-0-0-0--0-0-0-0-0-3-2-|
A:-----------3-3-3-3-3--2-2-2-2-2----------------|
E:-----------1-1-1-1-1--3-3-3-3-3----------------|
gt2
e:-----------------------------------------------|
B:-----------------------------------------------|
G:-7-7-7-7-7-----------------------7-7-7-7-7-----|
D:-7-7-7-7-7-3-3-3-3-3--5-5-5-5-5--7-7-7-7-7-----|
A:-5-5-5-5-5-3-3-3-3-3--5-5-5-5-5--5-5-5-5-5-8-7-|
E:-----------1-1-1-1-1--3-3-3-3-3----------------|

gt1
e:-----------1-1-1-1-1--3-3-3-3-3------------------|
B:-3-3-3-3-3-1-1-1-1-1--3-3-3-3-3--3-3-3-3-3-3-3-3-|
G:-2-2-2-2-2-2-2-2-2-2--0-0-0-0-0--2-2-2-2-2-2-2-2-|
D:-0-0-0-0-0-3-3-3-3-3--0-0-0-0-0--0-0-0-0-0-0-0-0-|
A:-----------3-3-3-3-3--2-2-2-2-2------------------|
E:-----------1-1-1-1-1--3-3-3-3-3------------------|
gt2
e:-------------------------------------------------|
B:-------------------------------------------------|
G:-7-7-7-7-7-----------------------7-7-7-7-7-7-7-7-|
D:-7-7-7-7-7-3-3-3-3-3--5-5-5-5-5--7-7-7-7-7-7-7-7-|
A:-5-5-5-5-5-3-3-3-3-3--5-5-5-5-5--5-5-5-5-5-5-5-5-|
E:-----------1-1-1-1-1--3-3-3-3-3------------------|

e:-------------------------------------------|
B:-3-3--3-3--3-3-3--3-3--3-3-3--3-3--3-3-3---|
G:-2-2--0h2--2-2-2--0h2--2-2-2--0h2--2-2-2---|
D:-0-0--0-0--0-0-0--0-0--0-0-0--0-0--0-0-0---|
A:-----------------------------------------3-|
E:-------------------------------------------|

e:----------------------------------------------|
B:-3-3--3-3--3-3-3--3-3--3-3-3--3-3--3-3-3------|
G:-2-2--0h2--2-2-2--0h2--2-2-2--0h2--2-2-2------|
D:-0-0--0-0--0-0-0--0-0--0-0-0--0-0--0-0-0--3-2-|
A:----------------------------------------------|
E:----------------------------------------------|

verse
e:-------------------------------------------|
B:-3-3--3-3--3-3-3--3-3--3-3-3--3-3--3-3-3---|
G:-2-2--0h2--2-2-2--0h2--2-2-2--0h2--2-2-2---|
D:-0-0--0-0--0-0-0--0-0--0-0-0--0-0--0-0-0---|
A:-----------------------------------------3-|
E:-------------------------------------------|

e:--------------------------------------------------------------|
B:-3-3--3-3--3-3-3--3-3--3-3-3--3-3--3-3-3-3-3-3-3-3-3--3-3-3-3-|
G:-2-2--0h2--2-2-2--0h2--2-2-2--0h2--2-2-2-0-0-0-0-0-0--0-0-0-0-|
D:-0-0--0-0--0-0-0--0-0--0-0-0--0-0--0-0-0-2-2-2-2-2-2--0-0-0-0-|
A:-----------------------------------------3-3-3-3-3-3--2-2-2-2-|
E:--------------------------------------------------------------|

e:----------------------------------------------|
B:-3-3--3-3--3-3-3--3-3--3-3-3--3-3--3-3-3------|
G:-2-2--0h2--2-2-2--0h2--2-2-2--0h2--2-2-2------|
D:-0-0--0-0--0-0-0--0-0--0-0-0--0-0--0-0-0--3-2-|
A:----------------------------------------------|
E:----------------------------------------------|

e:-------------------------------------------|
B:-3-3--3-3--3-3-3--3-3--3-3-3--3-3--3-3-3---|
G:-2-2--0h2--2-2-2--0h2--2-2-2--0h2--2-2-2---|
D:-0-0--0-0--0-0-0--0-0--0-0-0--0-0--0-0-0---|
A:-----------------------------------------3-|
E:-------------------------------------------|

e:-------------------------------------------|
B:-3-3--3-3--3-3-3--3-3--3-3-3--3-3--3-3-3---|
G:-2-2--0h2--2-2-2--0h2--2-2-2--0h2--2-2-2---|
D:-0-0--0-0--0-0-0--0-0--0-0-0--0-0--0-0-0---|
A:-----------------------------------------3-|
E:-------------------------------------------|

e:--------------------------------------------------------------|
B:-3-3--3-3--3-3-3--3-3--3-3-3--3-3--3-3-3-3-3-3-3-3-3--3-3-3-3-|
G:-2-2--0h2--2-2-2--0h2--2-2-2--0h2--2-2-2-0-0-0-0-0-0--0-0-0-0-|
D:-0-0--0-0--0-0-0--0-0--0-0-0--0-0--0-0-0-2-2-2-2-2-2--0-0-0-0-|
A:-----------------------------------------3-3-3-3-3-3--2-2-2-2-|
E:--------------------------------------------------------------|

e:----------------------------------------------|
B:-3-3--3-3--3-3-3--3-3--3-3-3--3-3--3-3-3------|
G:-2-2--0h2--2-2-2--0h2--2-2-2--0h2--2-2-2------|
D:-0-0--0-0--0-0-0--0-0--0-0-0--0-0--0-0-0--3-2-|
A:----------------------------------------------|
E:----------------------------------------------|

e:-------------------------------------------|
B:-3-3--3-3--3-3-3--3-3--3-3-3--3-3--3-3-3---|
G:-2-2--0h2--2-2-2--0h2--2-2-2--0h2--2-2-2---|
D:-0-0--0-0--0-0-0--0-0--0-0-0--0-0--0-0-0---|
A:-----------------------------------------3-|
E:-------------------------------------------|

chorus
gt1
e:-----------1-1-1-1-1--3-3-3-3-3--------------|
B:-3-3-3-3-3-1-1-1-1-1--3-3-3-3-3--3-3-3-3-3---|
G:-2-2-2-2-2-2-2-2-2-2--0-0-0-0-0--2-2-2-2-2---|
D:-0-0-0-0-0-3-3-3-3-3--0-0-0-0-0--0-0-0-0-0---|
A:-----------3-3-3-3-3--2-2-2-2-2------------3-|
E:-----------1-1-1-1-1--3-3-3-3-3--------------|
gt2
e:---------------------------------------------|
B:---------------------------------------------|
G:-7-7-7-7-7-----------------------7-7-7-7-7---|
D:-7-7-7-7-7-3-3-3-3-3--5-5-5-5-5--7-7-7-7-7---|
A:-5-5-5-5-5-3-3-3-3-3--5-5-5-5-5--5-5-5-5-5---|
E:-----------1-1-1-1-1--3-3-3-3-3------------8-|

gt1
e:-----------1-1-1-1-1--3-3-3-3-3----------------|
B:-3-3-3-3-3-1-1-1-1-1--3-3-3-3-3--3-3-3-3-3-----|
G:-2-2-2-2-2-2-2-2-2-2--0-0-0-0-0--2-2-2-2-2-----|
D:-0-0-0-0-0-3-3-3-3-3--0-0-0-0-0--0-0-0-0-0-3-2-|
A:-----------3-3-3-3-3--2-2-2-2-2----------------|
E:-----------1-1-1-1-1--3-3-3-3-3----------------|
gt2
e:-----------------------------------------------|
B:-----------------------------------------------|
G:-7-7-7-7-7-----------------------7-7-7-7-7-----|
D:-7-7-7-7-7-3-3-3-3-3--5-5-5-5-5--7-7-7-7-7-----|
A:-5-5-5-5-5-3-3-3-3-3--5-5-5-5-5--5-5-5-5-5-8-7-|
E:-----------1-1-1-1-1--3-3-3-3-3----------------|

gt1
e:-----------1-1-1-1-1--3-3-3-3-3------------------|
B:-3-3-3-3-3-1-1-1-1-1--3-3-3-3-3--3-3-3-3-3-3-3-3-|
G:-2-2-2-2-2-2-2-2-2-2--0-0-0-0-0--2-2-2-2-2-2-2-2-|
D:-0-0-0-0-0-3-3-3-3-3--0-0-0-0-0--0-0-0-0-0-0-0-0-|
A:-----------3-3-3-3-3--2-2-2-2-2------------------|
E:-----------1-1-1-1-1--3-3-3-3-3------------------|
gt2
e:-------------------------------------------------|
B:-------------------------------------------------|
G:-7-7-7-7-7-----------------------7-7-7-7-7-7-7-7-|
D:-7-7-7-7-7-3-3-3-3-3--5-5-5-5-5--7-7-7-7-7-7-7-7-|
A:-5-5-5-5-5-3-3-3-3-3--5-5-5-5-5--5-5-5-5-5-5-5-5-|
E:-----------1-1-1-1-1--3-3-3-3-3------------------|

gt1
e:-----------1-1-1-1-1--3-3-3-3-3------------------|
B:-3-3-3-3-3-1-1-1-1-1--3-3-3-3-3--3-3-3-3-3-3-3-3-|
G:-2-2-2-2-2-2-2-2-2-2--0-0-0-0-0--2-2-2-2-2-2-2-2-|
D:-0-0-0-0-0-3-3-3-3-3--0-0-0-0-0--0-0-0-0-0-0-0-0-|
A:-----------3-3-3-3-3--2-2-2-2-2------------------|
E:-----------1-1-1-1-1--3-3-3-3-3------------------|
gt2
e:-------------------------------------------------|
B:-------------------------------------------------|
G:-7-7-7-7-7-----------------------7-7-7-7-7-7-7-7-|
D:-7-7-7-7-7-3-3-3-3-3--5-5-5-5-5--7-7-7-7-7-7-7-7-|
A:-5-5-5-5-5-3-3-3-3-3--5-5-5-5-5--5-5-5-5-5-5-5-5-|
E:-----------1-1-1-1-1--3-3-3-3-3------------------|

e:-------------------------------------------|
B:-3-3--3-3--3-3-3--3-3--3-3-3--3-3--3-3-3---|
G:-2-2--0h2--2-2-2--0h2--2-2-2--0h2--2-2-2---|
D:-0-0--0-0--0-0-0--0-0--0-0-0--0-0--0-0-0---|
A:-----------------------------------------3-|
E:-------------------------------------------|

e:----------------------------------------------|
B:-3-3--3-3--3-3-3--3-3--3-3-3--3-3--3-3-3------|
G:-2-2--0h2--2-2-2--0h2--2-2-2--0h2--2-2-2------|
D:-0-0--0-0--0-0-0--0-0--0-0-0--0-0--0-0-0--3-2-|
A:----------------------------------------------|
E:----------------------------------------------|

e:-------------------------------------------|
B:-3-3--3-3--3-3-3--3-3--3-3-3--3-3--3-3-3---|
G:-2-2--0h2--2-2-2--0h2--2-2-2--0h2--2-2-2---|
D:-0-0--0-0--0-0-0--0-0--0-0-0--0-0--0-0-0---|
A:-----------------------------------------3-|
E:-------------------------------------------|

e:---------------------------------------------|
B:-3-3--3-3--3-3-3--3-3--3-3-3--3-3--3-3-3-----|
G:-2-2--0h2--2-2-2--0h2--2-2-2--0h2--2-2-2-----|
D:-0-0--0-0--0-0-0--0-0--0-0-0--0-0--0-0-0-----|
A:-----------------------------------------3-3-|
E:---------------------------------------------|

verse
 pm. .  . .  . . .  . .  . . .  . .  . . .
e:-------------------------------------------|
B:-3-3--3-3--3-3-3--3-3--3-3-3--3-3--3-3-3---|
G:-2-2--0h2--2-2-2--0h2--2-2-2--0h2--2-2-2---|
D:-0-0--0-0--0-0-0--0-0--0-0-0--0-0--0-0-0---|
A:-----------------------------------------3-|
E:-------------------------------------------|

 pm. .  . .  . . .  . .  . . .  . .  . . . . . . . .    . .
e:--------------------------------------------------------------|
B:-3-3--3-3--3-3-3--3-3--3-3-3--3-3--3-3-3-3-3-3-3-3-3--3-3-3-3-|
G:-2-2--0h2--2-2-2--0h2--2-2-2--0h2--2-2-2-0-0-0-0-0-0--0-0-0-0-|
D:-0-0--0-0--0-0-0--0-0--0-0-0--0-0--0-0-0-2-2-2-2-2-2--0-0-0-0-|
A:-----------------------------------------3-3-3-3-3-3--2-2-2-2-|
E:--------------------------------------------------------------|

e:----------------------------------------------|
B:-3-3--3-3--3-3-3--3-3--3-3-3--3-3--3-3-3------|
G:-2-2--0h2--2-2-2--0h2--2-2-2--0h2--2-2-2------|
D:-0-0--0-0--0-0-0--0-0--0-0-0--0-0--0-0-0--3-2-|
A:----------------------------------------------|
E:----------------------------------------------|

e:-------------------------------------------|
B:-3-3--3-3--3-3-3--3-3--3-3-3--3-3--3-3-3---|
G:-2-2--0h2--2-2-2--0h2--2-2-2--0h2--2-2-2---|
D:-0-0--0-0--0-0-0--0-0--0-0-0--0-0--0-0-0---|
A:-----------------------------------------3-|
E:-------------------------------------------|

verse
e:-------------------------------------------|
B:-3-3--3-3--3-3-3--3-3--3-3-3--3-3--3-3-3---|
G:-2-2--0h2--2-2-2--0h2--2-2-2--0h2--2-2-2---|
D:-0-0--0-0--0-0-0--0-0--0-0-0--0-0--0-0-0---|
A:-----------------------------------------3-|
E:-------------------------------------------|

e:--------------------------------------------------------------|
B:-3-3--3-3--3-3-3--3-3--3-3-3--3-3--3-3-3-3-3-3-3-3-3--3-3-3-3-|
G:-2-2--0h2--2-2-2--0h2--2-2-2--0h2--2-2-2-0-0-0-0-0-0--0-0-0-0-|
D:-0-0--0-0--0-0-0--0-0--0-0-0--0-0--0-0-0-2-2-2-2-2-2--2-2-2-2-|
A:-----------------------------------------3-3-3-3-3-3--3-3-3-3-|
E:--------------------------------------------------------------|

e:-------------------------------------------|
B:-3-3--3-3--3-3-3--3-3--3-3-3--3-3--3-3-3---|
G:-2-2--0h2--2-2-2--0h2--2-2-2--0h2--2-2-2---|
D:-0-0--0-0--0-0-0--0-0--0-0-0--0-0--0-0-0---|
A:-----------------------------------------3-|
E:-------------------------------------------|

e:----------------------------------------------|
B:-3-3--3-3--3-3-3--3-3--3-3-3--3-3--3-3-3------|
G:-2-2--0h2--2-2-2--0h2--2-2-2--0h2--2-2-2------|
D:-0-0--0-0--0-0-0--0-0--0-0-0--0-0--0-0-0--3-2-|
A:----------------------------------------------|
E:----------------------------------------------|

chorus
gt1
e:-----------1-1-1-1-1--3-3-3-3-3--------------|
B:-3-3-3-3-3-1-1-1-1-1--3-3-3-3-3--3-3-3-3-3---|
G:-2-2-2-2-2-2-2-2-2-2--0-0-0-0-0--2-2-2-2-2---|
D:-0-0-0-0-0-3-3-3-3-3--0-0-0-0-0--0-0-0-0-0---|
A:-----------3-3-3-3-3--2-2-2-2-2------------3-|
E:-----------1-1-1-1-1--3-3-3-3-3--------------|
gt2
e:---------------------------------------------|
B:---------------------------------------------|
G:-7-7-7-7-7-----------------------7-7-7-7-7---|
D:-7-7-7-7-7-3-3-3-3-3--5-5-5-5-5--7-7-7-7-7---|
A:-5-5-5-5-5-3-3-3-3-3--5-5-5-5-5--5-5-5-5-5---|
E:-----------1-1-1-1-1--3-3-3-3-3------------8-|

gt1
e:-----------1-1-1-1-1--3-3-3-3-3----------------|
B:-3-3-3-3-3-1-1-1-1-1--3-3-3-3-3--3-3-3-3-3-----|
G:-2-2-2-2-2-2-2-2-2-2--0-0-0-0-0--2-2-2-2-2-----|
D:-0-0-0-0-0-3-3-3-3-3--0-0-0-0-0--0-0-0-0-0-3-2-|
A:-----------3-3-3-3-3--2-2-2-2-2----------------|
E:-----------1-1-1-1-1--3-3-3-3-3----------------|
gt2
e:-----------------------------------------------|
B:-----------------------------------------------|
G:-7-7-7-7-7-----------------------7-7-7-7-7-----|
D:-7-7-7-7-7-3-3-3-3-3--5-5-5-5-5--7-7-7-7-7-----|
A:-5-5-5-5-5-3-3-3-3-3--5-5-5-5-5--5-5-5-5-5-8-7-|
E:-----------1-1-1-1-1--3-3-3-3-3----------------|

gt1
e:-----------1-1-1-1-1--3-3-3-3-3------------------|
B:-3-3-3-3-3-1-1-1-1-1--3-3-3-3-3--3-3-3-3-3-3-3-3-|
G:-2-2-2-2-2-2-2-2-2-2--0-0-0-0-0--2-2-2-2-2-2-2-2-|
D:-0-0-0-0-0-3-3-3-3-3--0-0-0-0-0--0-0-0-0-0-0-0-0-|
A:-----------3-3-3-3-3--2-2-2-2-2------------------|
E:-----------1-1-1-1-1--3-3-3-3-3------------------|
gt2
e:-------------------------------------------------|
B:-------------------------------------------------|
G:-7-7-7-7-7-----------------------7-7-7-7-7-7-7-7-|
D:-7-7-7-7-7-3-3-3-3-3--5-5-5-5-5--7-7-7-7-7-7-7-7-|
A:-5-5-5-5-5-3-3-3-3-3--5-5-5-5-5--5-5-5-5-5-5-5-5-|
E:-----------1-1-1-1-1--3-3-3-3-3------------------|

gt1
e:-----------1-1-1-1-1--3-3-3-3-3------------------|
B:-3-3-3-3-3-1-1-1-1-1--3-3-3-3-3--3-3-3-3-3-3-3-3-|
G:-2-2-2-2-2-2-2-2-2-2--0-0-0-0-0--2-2-2-2-2-2-2-2-|
D:-0-0-0-0-0-3-3-3-3-3--0-0-0-0-0--0-0-0-0-0-0-0-0-|
A:-----------3-3-3-3-3--2-2-2-2-2------------------|
E:-----------1-1-1-1-1--3-3-3-3-3------------------|
gt2
e:-------------------------------------------------|
B:-------------------------------------------------|
G:-7-7-7-7-7-----------------------7-7-7-7-7-7-7-7-|
D:-7-7-7-7-7-3-3-3-3-3--5-5-5-5-5--7-7-7-7-7-7-7-7-|
A:-5-5-5-5-5-3-3-3-3-3--5-5-5-5-5--5-5-5-5-5-5-5-5-|
E:-----------1-1-1-1-1--3-3-3-3-3------------------|


e:-------------------------------------------|
B:-3-3--3-3--3-3-3--3-3--3-3-3--3-3--3-3-3---|
G:-2-2--0h2--2-2-2--0h2--2-2-2--0h2--2-2-2---|
D:-0-0--0-0--0-0-0--0-0--0-0-0--0-0--0-0-0---|
A:-----------------------------------------3-|
E:-------------------------------------------|

e:----------------------------------------------|
B:-3-3--3-3--3-3-3--3-3--3-3-3--3-3--3-3-3------|
G:-2-2--0h2--2-2-2--0h2--2-2-2--0h2--2-2-2------|
D:-0-0--0-0--0-0-0--0-0--0-0-0--0-0--0-0-0--3-2-|
A:----------------------------------------------|
E:----------------------------------------------|


e:--------------------------------------------------|
B:-3-/--15-15-15-15-15-15-15-15-15-15-15-15-15--15\-|
G:-2-/--14-14-14-14-14-14-14-14-14-14-14-14-14--14\-|
D:-0------------------------------------------------|
A:--------------------------------------------------|
E:--------------------------------------------------|

   solo
e:----10h13p10----10h13p10----10h13p10-----10h13p10----10h13p10----10h13p10----10b~~-|
B:-13----------13----------13-----------13----------13----------13----------13-------|
G:-----------------------------------------------------------------------------------|
D:-----------------------------------------------------------------------------------|
A:-----------------------------------------------------------------------------------|
E:-----------------------------------------------------------------------------------|

e:-10-----------------10-----------------------------------------------|
B:----13-10--------10----13bf-13-10------------------------------------|
G:----------12-12b------------------12-10------------------------------|
D:----------------------------------------12-10------------------------|
A:----------------------------------------------12-10----10~~-10-------|
E:----------------------------------------------------13---------13-10-|

e:-------------------------------------------------------------------------------------|
B:--------------------------------10-10-10-10-10-10-10--------------12b----12-12-10~~~-|
G:--------------------------------10-10-10-10-10-10-10-----10-12-10-12b-10-12-12-10~~~-|
D:---------------------------8-10-10-10-10-10-10-10-10--12-----------------------------|
A:-------------------------------------------------------------------------------------|
E:-8h10-10--8h10-10--8h10-10-----------------------------------------------------------|

e:--------------------------------------------------9-----9----9----9-|
B:-12\--13-13-13-13-13-13-13--13--12--10--7-7--7/10---10----10---10---|
G:-12\--12-12-12-12-12-12-12--12--12--10--7-7-------------------------|
D:--------------------------------------------------------------------|
A:--------------------------------------------------------------------|
E:--------------------------------------------------------------------|

e:-------------------9--9--9--9--9--9--9--9--9--|
B:-13--12--10---7-7--10-10-10-10-10-10-10-10-10-|
G:-12--12--10---7-7-----------------------------|
D:----------------------------------------------|
A:----------------------------------------------|
E:----------------------------------------------|

e:-------------------------------------------|
B:-13--12--10---7-7--12-13-12-13-12-13-12-13-|
G:-12--12--10---7-7--12-12-12-12-12-12-12-12-|
D:-------------------------------------------|
A:-------------------------------------------|
E:-------------------------------------------|

e:-------------------13p10----10--------------------------------|
B:-13--12--10---7-7--------13----13p10--------------------------|
G:-12--12--10---7-7--------------------12p10--------------------|
D:-------------------------------------------12p10--------------|
A:-------------------------------------------------12p10--------|
E:--------------------------------------------------------13-10-|

websites:

http://www.myspace.com/ghostdinner                                myspace

http://www.facebook.com/pages/The-Ghost-Dinner-Band/261852034298  facebook


hillo son mex

16/08/10

            
            
Suggest correction
Creating personal tab
Creating personal tab
You can edit any tab online and save it as your Personal.

You can edit, replace or remove any tab part or add personal notes – all changes will be seen only by you.

Personal tabs can be accessed anytime from any device, even offline.
Learn more »
Give kudos to tab author, rate the tab!
1 2 3 4 5
comments
print report bad tab
guest
You may want to rate the tab now too:
select rating
Wanna post a correction for this tab? Suggest correction