Oops, an error
Loading. Please wait.

Between The Lines Bass Tab

version 1
version 1

Whole song

Interactive

1,066 views 9 this week
no commentswrite comment
1 2 3 4 5
please rate
add to favorites
launch autoscroll
font size
0
reset
guitar tuner
Tab Pro tools
  • play this tab
  • loop segment
  • change instrument
  • show fretboard
  • metronome
Autoscroll
slow
fast
+/-
esc
set tempo
stop
Contributor
I had to copy this from a guitar pro tab and it took a long time but it's fairly accurate. 
Tuning: A# F A# D#

|-----------------------------------------------------------------------------------------------|
|-----------------------------------------------------------------------------------------------|
|-----------------------------------------------------------------------------------------------|
|-8~--------------------------------------------------10~---------------------------------------|


|-----------------------------------------------------------------------------------------------|
|-----------------------------------------------------------------------------------------------|
|-----------------------------------------------------------------------------------------------|
|-0~--------------------------------------------------3~----------------------------------------|


|-----------------------------------------------------------------------------------------------|
|-----------------------------------------------------------------------------------------------|
|-----------------------------------------------------------------------------------------------|
|-8~--------------------------------------------------10~---------------------------------------|

|-----------------------------------------------------------------------------------------------|
|-----------------------------------------------------------------------------------------------|
|-----------------------------------------------------------------------------------------------|
|-0~---------------------------------------------------3~---------------------------------------|

|-----------------------------------------------------------------------------------------------|
|-----------------------------------------------------------------------------------------------|
|-----------------------------------------------------------------------------------------------|
|-8-8---8-8-8---8-8-8---8-8-8---8---10-10---10-10-10---10-10-10---10-10-10---10-----------------|

|-----------------------------------------------------------------------------------------------|
|-----------------------------------------------------------------------------------------------|
|-----------------------------------------------------------------------------------------------|
|-0-0---0-0-0---0-0-0---0-0-0---0---3-3---3-3-3---3-3-3---3-3-3---3-----------------------------|


|-----------------------------------------------------------------------------------------------|
|-----------------------------------------------------------------------------------------------|
|-----------------------------------------------------------------------------------------------|
|-8-8---8-8-8---8-8-8---8-8-8---8---10-10---10-10-10---10-10-10---10-10-10---10-----------------|

|-----------------------------------------------------------------------------------------------|
|-----------------------------------------------------------------------------------------------|
|-----------------------------------------------------------------------------------------------|
|-0-0---0-0-0---0-0-0---0-0-0---0---3-3---3-3-3---3-3-3---3-3-3---3-----------------------------|


|-----------------------------------------------------------------------------------------------|
|-----------------------------------------------------------------------------------------------|
|-----------------------------------------------------------------------------------------------|
|-8-8---8-8-8---8-8-8---8-8-8---8-8-8---8-8-8---8-12-12---12-12-12---12-------------------------|

|-----------------------------------------------------------------------------------------------|
|-----------------------------------------------------------------------------------------------|
|-----------------------------------------------------------------------------------------------|
|-8-8---8-8-8---8-8-8---8-8-8---8-8-8---8-8-8---8-12-12---12-12-12---12-------------------------|

|-----------------------------------------------------------------------------------------------|
|-----------------------------------------------------------------------------------------------|
|-----------------------------------------------------------------------------------------------|
|-8-8---8-8-8---8-8-8---8-8-8---8-8-8---8-8-8---8-12-12---12-12-12---12-------------------------|

|-----------------------------------------------------------------------------------------------|
|-----------------------------------------------------------------------------------------------|
|-----------------------------------------------------------------------------------------------|
|-8-8---8-8-8---8-8-8---8-8-8---8-8-8---8-8-8---8-12-12---12-12-12---12-------------------------|

|-----------------------------------------------------------------------------------------------|
|-----------------------------------------------------------------------------------------------|
|-----------------------------------------------------------------------------------------------|
|-0-0-0-0------------------0-0-0-0-0---0-0-0-0--------------------------------------------------|

|-----------------------------------------------------------------------------------------------|
|-----------------------------------------------------------------------------------------------|
|-----------------------------------------------------------------------------------------------|
|-0-0-0-0------------------0-0-0-0-0---0-0-0-0----------------0-12------------------------------|

|-----------------------------------------------------------------------------------------------|
|-----------------------------------------------------------------------------------------------|
|-----------------------------------------------------------------------------------------------|
|-0-0-0-0------------------0-0-0-0-0---0-0-0-0--------------------------------------------------|

|-----------------------------------------------------------------------------------------------|
|-----------------------------------------------------------------------------------------------|
|-----------------------------------------------------------------------------------------------|
|-0-0-0-0------------------0-0-0-0-0---0-0-0-0----------------0-12------------------------------|

"Defy The Leader...
|-----------------------------------------------------------------------------------------------|
|-----------------------------------------------------------------------------------------------|
|-----------------------------------------------------------------------------------------------|
|-0--0--1~~------------0--0--1~~------0--0-0---0--0--1~~------------0--0--1~~---0--0-0----------|

"What do you stand for?!"
|-----------------------------------------------------------------------------------------------|
|-----------------------------------------------------------------------------------------------|
|-----------------------------------------------------------------------------------------------|
|-0-0-0-0--------0-0-0-0-0---0-0-0-0------0--0-0------------------------------------------------|

|-----------------------------------------------------------------------------------------------|
|-----------------------------------------------------------------------------------------------|
|-----------------------------------------------------------------------------------------------|
|-0-0-0-0--------0-0-0-0-0---0-0-0-0------0--0-0------------------------------------------------|

|-----------------------------------------------------------------------------------------------|
|-----------------------------------------------------------------------------------------------|
|-----------------------------------------------------------------------------------------------|
|-0-0-0-0--------0-0-0-0-0---0-0-0-0------0--0-0------------------------------------------------|

|-----------------------------------------------------------------------------------------------|
|-----------------------------------------------------------------------------------------------|
|-----------------------------------------------------------------------------------------------|
|-0-0-0-0--------0-0-0-0-0------12--------------------------------------------------------------|

|-----------------------------------------------------------------------------------------------|
|-----------------------------------------------------------------------------------------------|
|-----------------------------------------------------------------------------------------------|
|-8-8---8-8-8---8-8-8---8-8-8---8---10-10---10-10-10---10-10-10---10-10-10---10-----------------|

|-----------------------------------------------------------------------------------------------|
|-----------------------------------------------------------------------------------------------|
|-----------------------------------------------------------------------------------------------|
|-0-0---0-0-0---0-0-0---0-0-0---0---3-3---3-3-3---3-3-3---3-3-3---3-----------------------------|

|-----------------------------------------------------------------------------------------------|
|-----------------------------------------------------------------------------------------------|
|-----------------------------------------------------------------------------------------------|
|-8-8---8-8-8---8-8-8---8-8-8---8---10-10---10-10-10---10-10-10---10-10-10---10-----------------|

|-----------------------------------------------------------------------------------------------|
|-----------------------------------------------------------------------------------------------|
|-----------------------------------------------------------------------------------------------|
|-0-0---0-0-0---0-0-0---0-0-0---0---3-3---3-3-3---3-3-3---3-3-3---3-----------------------------|

|-----------------------------------------------------------------------------------------------|
|-----------------------------------------------------------------------------------------------|
|-----------------------------------------------------------------------------------------------|
|-8-8---8-8-8---8-8-8---8-8-8---8---10-10---10-10-10---10-10-10---10-10-10---10-----------------|

|-----------------------------------------------------------------------------------------------|
|-----------------------------------------------------------------------------------------------|
|-----------------------------------------------------------------------------------------------|
|-0-0---0-0-0---0-0-0---0-0-0---0---3-3---3-3-3---3-3-3---3-3-3---3-----------------------------|

|-----------------------------------------------------------------------------------------------|
|-----------------------------------------------------------------------------------------------|
|-----------------------------------------------------------------------------------------------|
|-8-8---8-8-8---8-8-8---8-8-8---8---10-10---10-10-10---10-10-10---10-10-10---10-----------------|

|-----------------------------------------------------------------------------------------------|
|-----------------------------------------------------------------------------------------------|
|-----------------------------------------------------------------------------------------------|
|-0-0---0-0-0---0-0-0---0-0-0---0---3-3---3-3-3---3-3-3---3-3-3---3-----------------------------|

|-----------------------------------------------------------------------------------------------|
|-----------------------------------------------------------------------------------------------|
|-----------------------------------------------------------------------------------------------|
|-0---0---1~------0--0-0---0~~~~~~---0~~~~~~----------------------------------------------------|

|-----------------------------------------------------------------------------------------------|
|-----------------------------------------------------------------------------------------------|
|-----------------------------------------------------------------------------------------------|
|-12--12---0-0-0-0---0-0-0-0--1--1--1--12--12---0-0-0-0---0-0-0-0---0--0-0--0-0-----------------|

|-----------------------------------------------------------------------------------------------|
|-----------------------------------------------------------------------------------------------|
|-----------------------------------------------------------------------------------------------|
|-12--12---0-0-0-0---0-0-0-0--1--1--1--12--12---0-0-0-0---0-0-0-0---0--0-0--0-0-----------------|

|-----------------------------------------------------------------------------------------------|
|-----------------------------------------------------------------------------------------------|
|-----------------------------------------------------------------------------------------------|
|-8---8---8-8-8-8---8-8-8-8--12--12--12---8---8---8-8-8-8---8-8-8-8---10--10-10--10-10----------|

|-----------------------------------------------------------------------------------------------|
|-----------------------------------------------------------------------------------------------|
|-----------------------------------------------------------------------------------------------|
|-0---0---0-0-0-0----0-0-0-0--0--0--0---0----0---0-0-0-0---0-0-0-0----0--0-0--0-0---------------|

|-----------------------------------------------------------------------------------------------|
|-----------------------------------------------------------------------------------------------|
|-----------------------------------------------------------------------------------------------|
|-8---8---8-8-8-8---8-8-8-8--12--12--12---8---8---8-8-8-8---8-8-8-8---10--10-10--10-10----------|

|-----------------------------------------------------------------------------------------------|
|-----------------------------------------------------------------------------------------------|
|-----------------------------------------------------------------------------------------------|
|-0---0---0-0-0-0----0-0-0-0--0--0--0---0----0---0-0-0-0---0-0-0-0----0--0-0--0-0---------------|

|-----------------------------------------------------------------------------------------------|
|-----------------------------------------------------------------------------------------------|
|-----------------------------------------------------------------------------------------------|
|-1---1---0-0-0-0-------------------------------------------------------------------------------|
comments
We did not receive enough feedback on this tab! Please rate:
print report bad tab
1 2 3 4 5
I want to post or [tab]
guest
You may want to rate the tab now too:
select rating
Please do not post tabs as comments. Select "correction" instead!