Oops, an error
Loading. Please wait.

Dear Youth Day 52 tab

version 1
version 1

Whole song

  • First tab, don't be a dick if its not the best.

Interactive

223 views 1 this week
no commentswrite comment
1 2 3 4 5
3 more votes to show rating
add to favorites
×
Save as Personal and add changes to this tab that will be seen only by you. Learn more ›
×
You can save this tab as Personal to edit and correct it or add notes. All changes will be seen only by you. Learn more »
launch autoscroll
font size
0
reset
how to read this tab
guitar tuner
edit
Autoscroll
slow
fast
+/-
esc
set tempo
stop
About this tab version
First tab, don't be a dick if its not the best. Was this info helpful? Yes No
[Intro]

C |-------------------------------------------------------0---x----------------------|
G |----10------------x---10-------11-10-----------------------x--------8-------------|
D#|---------10-------x--------10---------10----------10-------x----10-----10--9------|
A#|8-----------------8-------------------------10-------------10-----------------10--|
F |----------------------------------------------------------------------------------|
A#|----------------------------------------------------------------------------------|

C |x------------------------------------------------------0---x----------------------|
G |x---10------------x---10-------11-10-----------------------x--------8-------------|
D#|x--------10-------x--------10---------10----------10-------x----10-----10--9------|
A#|8-----------------8-------------------------10-------------10-----------------10--|
F |----------------------------------------------------------------------------------|
A#|----------------------------------------------------------------------------------|


[Chorus]

C |--------------------------------|
G |--------------------------------|
D#|--------------------------------|
A#|12--12-12--12-12--12-12-12-12---|x2
F |8---8--8---8--8---8--8---8--8---|
A#|8---8--8---8--8---8--8---8--8---|

C |------------------------------------------------------------------------------------------------|
G |------------------------------------------------------------------------------------------------|
D#|------------------------------------------------------------------------------------------------|
A#|15---15--15---15--15---15--15---15--15-----14---14--14---14--14---14--14---14--14---14--14---14-|
F |12---12--12---12--12---12--12---12--12-----10---10--10---10--10---10--10---10--10---10--10---10-|
A#|12---12--12---12--12---12--12---12--12-----10---10--10---10--10---10--10---10--10---10--10---10-|

G |--------------------------------|
G |--------------------------------|
D#|--------------------------------|
A#|12--12-12--12-12--12-12-12-12---|x2
F |12--12-12--12-12--12-12-12-12---|
A#|8---8--8---8--8---8--8---8--8---|

G |---------------------------------------------------------------------------|
C |---------------------------------------------------------------------------|
D#|---------------------------------------------------------------------------|
A#|14---14--14---14--14---14--14---14--14---14---14--14---14--14---14---------|
F |10---10--10---10--10---10--10---10--10---10---10--10---10--10---10--12-----|
A#|10---10--10---10--10---10--10---10--10---10---10--10---10--10---10--12-----|

[Verse]

C |------------------------------------------------------------|
G |------------------------------------------------------------|
D#|------------------------------------------------------------|
A#|----------------------------------------------5-----8-----7-|
F |1---0--0-------0---0--0---0--1---0--0--0---0--3-----6-----5-|
A#|1---0--0--12b--0---0--0---0--1---0--0--0---0-----0-----0----|
   The sickening looks like a knife

C |---------------------------------------------------------------------------|
G |---------------------------------------------------------------------------|
D#|---------------------------------------------------------------------------|
A#|---------------------------------------------------------------------------|
F |1---0--0-------0---0--0---0--1---0--0--0---0--3-----6-----5----------------|
A#|1---0--0--12b--0---0--0---0--1---0--0--0---0--3--0--6--0--5----------------|
   When it's cutting down the rest of our lives

C |------------------------------------------------------------|
G |------------------------------------------------------------|
D#|------------------------------------------------------------|
A#|----------------------------------------------5-----8-----7-|
F |1---0--0-------0---0--0---0--1---0--0--0---0--3-----6-----5-|
A#|1---0--0--12b--0---0--0---0--1---0--0--0---0-----0-----0----|
   So hard to swallow, no steps to follow
   
C |---------------------------------------------------------------------------|
G |---------------------------------------------------------------------------|
D#|---------------------------------------------------------------------------|
A#|---------------------------------------------------------------------------|
F |1---0--0-------0---0--0---0--1---0--0--0---0--3-----6-----5----------------|
A#|1---0--0--12b--0---0--0---0--1---0--0--0---0--3--0--6--0--5----------------|
   it became so hard to survive

C |------------------------------------------------|
G |10-10-10-10-10-10-10-10-10-10-11-11-11-11-11-11-|
D#|10-10-10-10-10-10-10-10-10-10-11-11-11-11-11-11-|
A#|8--8--8--8--8--8--8--8--8--8--8--8--8--8--8--8--|
F |------------------------------------------------|
A#|------------------------------------------------|

C |------------------------------------------------|
G |10-10-10-10-10-10-10-10-10-10-11-11-11----------|
D#|10-10-10-10-10-10-10-10-10-10-11-11-11----------|
A#|8--8--8--8--8--8--8--8--8--8--8--8--8-----------|
F |------------------------------------------------|
A#|------------------------------------------------|

[Chorus]

C |--------------------------------|
G |--------------------------------|
D#|--------------------------------|
A#|12--12-12--12-12--12-12-12-12---|x2
F |8---8--8---8--8---8--8---8--8---|
A#|8---8--8---8--8---8--8---8--8---|
  Dear youth, what was your one big plan?
C |------------------------------------------------------------------------------------------------|
G |------------------------------------------------------------------------------------------------|
D#|------------------------------------------------------------------------------------------------|
A#|15---15--15---15--15---15--15---15--15-----14---14--14---14--14---14--14---14--14---14--14---14-|
F |12---12--12---12--12---12--12---12--12-----10---10--10---10--10---10--10---10--10---10--10---10-|
A#|12---12--12---12--12---12--12---12--12-----10---10--10---10--10---10--10---10--10---10--10---10-|
  You made us believe we had the world in our hands
G |--------------------------------|
G |--------------------------------|
D#|--------------------------------|
A#|12--12-12--12-12--12-12-12-12---|x2
F |12--12-12--12-12--12-12-12-12---|
A#|8---8--8---8--8---8--8---8--8---|
  We left home. With nowhere to go. 
G |---------------------------------------------------------------------------|
C |---------------------------------------------------------------------------|
D#|---------------------------------------------------------------------------|
A#|14---14--14---14--14---14--14---14--14---14---14--14---14--14---14---------|
F |10---10--10---10--10---10--10---10--10---10---10--10---10--10---10--12-----|
A#|10---10--10---10--10---10--10---10--10---10---10--10---10--10---10--12-----|
   Facing our fears, as we brave, the unknown

[verse]

C |------------------------------------------------------------|
G |------------------------------------------------------------|
D#|------------------------------------------------------------|
A#|----------------------------------------------5-----8-----7-|
F |1---0--0-------0---0--0---0--1---0--0--0---0--3-----6-----5-|
A#|1---0--0--12b--0---0--0---0--1---0--0--0---0-----0-----0----|
   all i have to keep, are these jaded old memories

C |---------------------------------------------------------------------------|
G |---------------------------------------------------------------------------|
D#|---------------------------------------------------------------------------|
A#|---------------------------------------------------------------------------|
F |1---0--0-------0---0--0---0--1---0--0--0---0--3-----6-----5----------------|
A#|1---0--0--12b--0---0--0---0--1---0--0--0---0--3--0--6--0--5----------------|
   from screams of how it used to be 

C |------------------------------------------------------------|
G |------------------------------------------------------------|
D#|------------------------------------------------------------|
A#|----------------------------------------------5-----8-----7-|
F |1---0--0-------0---0--0---0--1---0--0--0---0--3-----6-----5-|
A#|1---0--0--12b--0---0--0---0--1---0--0--0---0-----0-----0----|
   I once was blind, but now i can see
   
C |---------------------------------------------------------------------------|
G |---------------------------------------------------------------------------|
D#|---------------------------------------------------------------------------|
A#|---------------------------------------------------------------------------|
F |1---0--0-------0---0--0---0--1---0--0--0---0--3-----6-----5----------------|
A#|1---0--0--12b--0---0--0---0--1---0--0--0---0--3--0--6--0--5----------------|
   That words of rationality, were wasted on me 

C |----------------------------|
G |----------------------------|
D#|----------------------------|
A#|----------------------------|Rest for a measure after playing this
F |1--0--0-0-0-0-0-0-0-0-0-0---|
A#|1--0--0-0-0-0-0-0-0-0-0-0---|

C |-------------------------------------------------|
G |-------------------------------------------------|
D#|-------------------------------------------------|
A#|--------------------------------------5-------8--|
F |1--0--0-0-0-0-0-0-0-0-0-0---1--0---0--3---0---6--|
A#|1--0--0-0-0-0-0-0-0-0-0-0---1--0---0------0------|
  Goodbye   its just a memory

C |----------------------------|
G |----------------------------|
D#|----------------------------|
A#|7---------------------------|
F |5--0--0-0-0-0-0-0-0-0-0--0--|
A#|---0--0-0-0-0-0-0-0-0-0--0--|
   That hasn't come to be
C |----------------------------|
G |----------------------------|
D#|----------------------------|
A#|----------------------------|
F |1--0----0---3--0---6--------|
A#|1--0----0---3--0---6--------|
               but I recognize

C |----------------------------|
G |----------------------------|
D#|----------------------------|
A#|----------------------------|
F |5--0--0-0-0-0-0-0-0-0-0--0--|
A#|5--0--0-0-0-0-0-0-0-0-0--0--|
                   that if you're

C |----------------------------|
G |----------------------------|
D#|----------------------------|
A#|----------------------------|
F |1--0----0---3--0---6--------|
A#|1--0----0---3--0---6--------|
   on the right track, but

C |----------------------------|
G |----------------------------|
D#|----------------------------|
A#|7---------------------------|
F |5--0--0-0-0-0-0-0-0-0-0--0--|
A#|---0--0-0-0-0-0-0-0-0-0--0--|
  catch the wrong train, 

C |----------------------------|
G |----------------------------|
D#|----------------------------|
A#|----------------------------|
F |1--0----0---6--3---5--------|
A#|1--0----0---6--3---5--------|
   nothing is the same

C |------------------------------------------------|
G |10-10-10-10-10-10-10-10-10-10-11-11-11-11-11-11-|
D#|10-10-10-10-10-10-10-10-10-10-11-11-11-11-11-11-|
A#|8--8--8--8--8--8--8--8--8--8--8--8--8--8--8--8--|
F |------------------------------------------------|
A#|------------------------------------------------|

C |------------------------------------------------|
G |10-10-10-10-10-10-10-10-10-10-11-11-11----------|
D#|10-10-10-10-10-10-10-10-10-10-11-11-11----------|
A#|8--8--8--8--8--8--8--8--8--8--8--8--8-----------|
F |------------------------------------------------|
A#|------------------------------------------------|

[Chorus]

C |--------------------------------|
G |--------------------------------|
D#|--------------------------------|
A#|12--12-12--12-12--12-12-12-12---|x2
F |8---8--8---8--8---8--8---8--8---|
A#|8---8--8---8--8---8--8---8--8---|
  Dear youth, what was your one big plan?
C |------------------------------------------------------------------------------------------------|
G |------------------------------------------------------------------------------------------------|
D#|------------------------------------------------------------------------------------------------|
A#|15---15--15---15--15---15--15---15--15-----14---14--14---14--14---14--14---14--14---14--14---14-|
F |12---12--12---12--12---12--12---12--12-----10---10--10---10--10---10--10---10--10---10--10---10-|
A#|12---12--12---12--12---12--12---12--12-----10---10--10---10--10---10--10---10--10---10--10---10-|
  You made us believe we had the world in our hands
G |--------------------------------|
G |--------------------------------|
D#|--------------------------------|
A#|12--12-12--12-12--12-12-12-12---|x2
F |12--12-12--12-12--12-12-12-12---|
A#|8---8--8---8--8---8--8---8--8---|
  We left home. With nowhere to go. 
G |---------------------------------------------------------------------------|
C |---------------------------------------------------------------------------|
D#|---------------------------------------------------------------------------|
A#|14---14--14---14--14---14--14---14--14---14---14--14---14--14---14---------|
F |10---10--10---10--10---10--10---10--10---10---10--10---10--10---10--12-----|
A#|10---10--10---10--10---10--10---10--10---10---10--10---10--10---10--12-----|
   Facing our fears, as we brave the unknown

C |--------------------------------|
G |--------------------------------|
D#|--------------------------------|
A#|12--12-12--12-12--12-12-12-12---|x2
F |8---8--8---8--8---8--8---8--8---|
A#|8---8--8---8--8---8--8---8--8---|
  Dear youth, put back those thoughts in my head
C |------------------------------------------------------------------------------------------------|
G |------------------------------------------------------------------------------------------------|
D#|------------------------------------------------------------------------------------------------|
A#|15---15--15---15--15---15--15---15--15-----14---14--14---14--14---14--14---14--14---14--14---14-|
F |12---12--12---12--12---12--12---12--12-----10---10--10---10--10---10--10---10--10---10--10---10-|
A#|12---12--12---12--12---12--12---12--12-----10---10--10---10--10---10--10---10--10---10--10---10-|
  The ones where I believe that I am boundless again
G |--------------------------------|
G |--------------------------------|
D#|--------------------------------|
A#|12--12-12--12-12--12-12-12-12---|x2
F |12--12-12--12-12--12-12-12-12---|
A#|8---8--8---8--8---8--8---8--8---|
  and i know, were at the end of our road. 
G |---------------------------------------------------------------------------|
C |---------------------------------------------------------------------------|
D#|---------------------------------------------------------------------------|
A#|14---14--14---14--14---14--14---14--14---14---14--14---14--14---14---------|
F |10---10--10---10--10---10--10---10--10---10---10--10---10--10---10--12-----|
A#|10---10--10---10--10---10--10---10--10---10---10--10---10--10---10--12-----|
   this is our story, this, was our home

[Outro]

C |x-------18--17----------13--15--17--12--13--15----------18--17----------13--15--13--17--12--13-|
G |15--------------15------------------------------15--------------15-----------------------------|
D#|x---14--------------14------------------------------14--------------14-------------------------|
A#|x----------------------------------------------------------------------------------------------|
F |-----------------------------------------------------------------------------------------------|
A#|-----------------------------------------------------------------------------------------------|

C |x-------18--17----------13--15--17--12--13--15----------18--17----------12b--------------------|
G |15--------------15------------------------------15--------------15-----------------------------|
D#|x---14--------------14------------------------------14--------------14-------------------------|
A#|x----------------------------------------------------------------------------------------------|
F |-----------------------------------------------------------------------------------------------|
A#|-----------------------------------------------------------------------------------------------|

C |x-------18--17----------13--15--17--12--13--15----------18--17----------13--15--13--17--12--13-|
G |15--------------15------------------------------15--------------15-----------------------------|
D#|x---14--------------14------------------------------14--------------14-------------------------|
A#|x----------------------------------------------------------------------------------------------|
F |-----------------------------------------------------------------------------------------------|
A#|-----------------------------------------------------------------------------------------------|

C |x-------18--17----------13--15--17--12--13--15----------18--17----------13--15--13--17--12--13-|
G |15--------------15------------------------------15--------------15-----------------------------|
D#|x---14--------------14------------------------------14--------------14-------------------------|
A#|x----------------------------------------------------------------------------------------------|
F |-----------------------------------------------------------------------------------------------|
A#|-----------------------------------------------------------------------------------------------|

C |x-------18--17----------13--15--17--12--13--15----------18--17----------13--15--13--17--12--13-|
G |15--------------15------------------------------15--------------15-----------------------------|
D#|x---14--------------14------------------------------14--------------14-------------------------|
A#|x----------------------------------------------------------------------------------------------|
F |-----------------------------------------------------------------------------------------------|
A#|-----------------------------------------------------------------------------------------------|
  alive and well the days are shrinking. alive and well, each moment more fleeting

C |x-------18--17----------13--15--17--12--13--15----------18--17----------13--15--13--17--12--13-|
G |15--------------15------------------------------15--------------15-----------------------------|
D#|x---14--------------14------------------------------14--------------14-------------------------|
A#|x----------------------------------------------------------------------------------------------|
F |-----------------------------------------------------------------------------------------------|
A#|-----------------------------------------------------------------------------------------------|
  alive and well, we gave our best. Alive and well, you know the rest. 

C |x-------18--17----------13--15--17--12--13--15----------18--17----------13--15--13--17--12--13-|
G |15--------------15------------------------------15--------------15-----------------------------|
D#|x---14--------------14------------------------------14--------------14-------------------------|
A#|x----------------------------------------------------------------------------------------------|
F |-----------------------------------------------------------------------------------------------|
A#|-----------------------------------------------------------------------------------------------|
  alive and well the days are shrinking. alive and well, each moment more fleeting

C |x-------18--17----------13--15--17--12--13--15----------18--17----------13--15--13--17--12--13-|
G |15--------------15------------------------------15--------------15-----------------------------|
D#|x---14--------------14------------------------------14--------------14-------------------------|
A#|x----------------------------------------------------------------------------------------------|
F |-----------------------------------------------------------------------------------------------|
A#|-----------------------------------------------------------------------------------------------|
  alive and well, we gave our best. Alive and well, you know the rest.



************************************

| x  Dead note
| b  Bend

************************************

            
            
Suggest correction
Creating personal tab
Creating personal tab
You can edit any tab online and save it as your Personal.

You can edit, replace or remove any tab part or add personal notes – all changes will be seen only by you.

Personal tabs can be accessed anytime from any device, even offline.
Learn more »
Give kudos to tab author, rate the tab!
1 2 3 4 5
comments
print report bad tab
guest
You may want to rate the tab now too:
select rating
Wanna post a correction for this tab? Suggest correction