Oops, an error
Loading. Please wait.

Disintegrator Tab

version 1
version 1

Whole song

Interactive

3,824 views 1 this week
1 commentread comment
1 2 3 4 5
please rate
add to favorites
launch autoscroll
font size
0
reset
how to read this tab
guitar tuner
Autoscroll
slow
fast
+/-
esc
set tempo
stop
Help us to improve Ultimate-Guitar.com Take our survey!
×
Contributor
Difficulty
Tuning
intermediate
B E A D F# B
The Ghost Inside - Disintegrator

Drop B tuning.


Intro

Guitar 1

c#|------------------------------------------------------|
G#|------------------------------------------------------|
 E|-1010-9-10-7--------1010-9/10-1212-1010-1414-12/14-10-|
 B|-x-x--x-x--x--------x-x--x-x--x-x--x-x---x-x--x--x-x--|
F#|-8-8--7/8--5-000000-8-8--7/8--1010-8-8--1212-10/12-8--|
 B|-------------000000-----------------------------------|

c#|-------------------------------------------|
G#|-------------------------------------------|
 E|--------1414-12-14-12-14-10-1010-----------|
 B|---------x-x--x--x--x--x-x--x-x------------| x2
F#|-000000-1212-10/12-10-12-8--8-8------------|
 B|-000000------------------------------------|


Guitar 2

c#|--------------------|
G#|--------------------|
 E|--12-14-10-1010-----|
 B|--10-12-8--8-8------| x 1
F#|--10-12-8--8-8------|
 B|--10-12-8--8-8------|

c#|------------------------------------------------------|
G#|------------------------------------------------------|
 E|-1010-9-10-7--------1010-9/10-1212-1010-1414-12/14-10-|
 B|-x-x--x-x--x--------x-x--x-x--x-x--x-x---x-x--x--x-x--|
F#|-8-8--7/8--5-000000-8-8--7/8--1010-8-8--1212-10/12-8--| 
 B|-------------000000-----------------------------------|

c#|-------------------------------------------|
G#|-------------------------------------------|
 E|--------1414-12-14-12-14-10-1010-----------|
 B|---------x-x--x--x--x--x-x--x-x------------|
F#|-000000-1212-10/12-10-12-8--8-8------------|x2
 B|-000000------------------------------------|
 

Verse

c#|---------------------------------------------------|
G#|---------------------------------------------------|
 E|---------------------------------------------------|
 B|--6-3-5-0000-6-3-5-00-6-6-3-5-00-0-------0---------|
F#|--6-3-5-0000-6-3-5-00-6-6-3-5-00-0-------0---------| x 2
 B|--6-3-5-0000-6-3-5-00-6-6-3-5-00-0-0h3p0-0---------|

Guitar 1

c#|--------------------------------|
G#|--------------------------------|
 E|--8---10-12-13--5-7-8-15--------|          Chords, figure out the rhythym yourself :)
 B|--x---x---x--x--x-x-x--x--------| x1
F#|--6---8--10-11--3-5-6-13--------|
 B|--------------------------------|


Guitar 2

c#|------|
G#|------|
 E|--8---|
 B|--6---| x 1 Again figure out the rhythm.
F#|--6---|
 B|--6---|

Guitar 1

c#|----------------------------------------------------|
G#|----------------------------------------------------|
 E|----------------------------------------------------|
 B|-6-3-5-0-0-6-3-5-0-0-6-3-5-0-0-0--0--0-0-0----------|
F#|-6-3-5-0-0-6-3-5-0-0-6-3-5-0-0-0--0--0-0-0----------|
 B|-6-3-5-0-0-6-3-5-0-0-6-3-5-0-0-0--0--0-0-0----------| x 2


Guitar 1

c#|--------------------------------|
G#|--------------------------------|
 E|--8---10-12-13--5-7-8-15--------|    
 B|--x---x---x--x--x-x-x--x--------| x1
F#|--6---8--10-11--3-5-6-13--------|
 B|--------------------------------|


Guitar 2

c#|------|
G#|------|
 E|--8---|
 B|--6---| x 1
F#|--6---|
 B|--6---|

Guitar 1

c#|----------|
G#|----------|
 E|----------|
 B|-0--0-----|
F#|-0--0-----|
 B|-0--0-----|

Guitar 2

c#|-----------------------|
G#|-----------------------|
 E|-----------------------|
 B|-0--0------------------|
F#|-0--0------------------|
 B|-0--0---00000----------|

Both Guitars

c#|--------------------------------|
G#|--------------------------------|
 E|--------------------------------|
 B|----------------8---------------|
F#|----------------6-0-------------| x 4 (Slide First time only)
 B|-12/0-6-3-5-0-1---0-00000-------|

c#|------------------------|
G#|------------------------|
 E|------------------------|
 B|---------------0--------|
F#|---------1-1-1-0--------| 
 B|-0-6-3-5-1-1-1-0--------|

Both Guitars

c#|-----------------------------------------------|
G#|-----------------------------------------------|
 E|-----------------------------------------------|
 B|---------------------8-------------------------|
F#|---------------------6-----------------1-1-1-0-| 
 B|-000000000-6-3-5-0-1---000000000-6-3-5-1-1-1-0-|

Guitar 2

c#|----------------------------------------------------|
G#|----------------------------------------------------|
 E|---------------------------------14-12-14-101010----|
 B|---------------------8------------------------------|
F#|---------------------6-----------12-10-12-8-8-8-----| 
 B|-000000000-6-3-5-0-1---000000000--------------------|

c#|-----------------------------------------------------|
G#|-----------------------------------------------------|
 E|-------------14-12-14-9-10-14--------14-12-14-10-10--|
 B|-----------------------------------------------------|
F#|-0-0---------12-10-12-7-8--12--------12-10-12-8--8---|
 B|-0-0-00000-0-----------------0-00000-----------------|

c#|-------|
G#|-------|
 E|-------|
 B|-0-----|
F#|-0-----|
 B|-0-----|

Guitar 1

c#|-----------------------------------------------------|
G#|-----------------------------------------------------|
 E|-----------------------------------------------------|
 B|-----------------------------------------------------|
F#|-------------1-0-1------------10-8-10-13-12--0-------| 
 B|-0000000-3-1-------1-0--00000-10-8-10-13-12--0-------| x 6


c#|------------------------------------------------------|
G#|------------------------------------------------------|
 E|-1010-9-10-7--------1010-9/10-1212-1010-1414-12/14-10-|
 B|-x-x--x-x--x--------x-x--x-x--x-x--x-x---x-x--x--x-x--|
F#|-8-8--7/8--5-000000-8-8--7/8--1010-8-8--1212-10/12-8--| 
 B|-------------000000-----------------------------------|

c#|-------------------------------------------|
G#|-------------------------------------------|
 E|--------1414-12-14-12-14-10-1010-----------|
 B|---------x-x--x--x--x--x-x--x-x------------|
F#|-000000-1212-10/12-10-12-8--8-8------------|x2
 B|-000000------------------------------------|

Guitar 2

c#|--------------------|
G#|--------------------|
 E|--12-14-10-1010-----|
 B|--10-12-8--8-8------| x 1
F#|--10-12-8--8-8------|
 B|--10-12-8--8-8------|

c#|------------------------------------------------------|
G#|------------------------------------------------------|
 E|-1010-9-10-7--------1010-9/10-1212-1010-1414-12/14-10-|
 B|-x-x--x-x--x--------x-x--x-x--x-x--x-x---x-x--x--x-x--|
F#|-8-8--7/8--5-000000-8-8--7/8--1010-8-8--1212-10/12-8--| 
 B|-------------000000-----------------------------------|

c#|-------------------------------------------|
G#|-------------------------------------------|
 E|--------1414-12-14-12-14-10-1010-----------|
 B|---------x-x--x--x--x--x-x--x-x------------|
F#|-000000-1212-10/12-10-12-8--8-8------------|x2
 B|-000000------------------------------------|

c#|------------------------------------------------------|
G#|------------------------------------------------------|
 E|-1010-9-10-7--------1010-9/10-1212-1010-1414-12/14-10-|
 B|-x-x--x-x--x--------x-x--x-x--x-x--x-x---x-x--x--x-x--|
F#|-8-8--7/8--5-000000-8-8--7/8--1010-8-8--1212-10/12-8--| 
 B|-------------000000-----------------------------------|

c#|-------------------------------------------|
G#|-------------------------------------------|
 E|--------1414-12-14-12-14-10-1010-----------|
 B|---------x-x--x--x--x--x-x--x-x------------|
F#|-000000-1212-10/12-10-12-8--8-8------------|x2
 B|-000000------------------------------------|


Guitar 1

c#|---------------------------------|
G#|---------------------------------|
 E|-7-9-10-12-7-9-10-15-------------|
 B|-x-x-x---x-x-x-x---x-------------| 
F#|-5-7-8--10-5-7-8--13-------------|
 B|---------------------------------|

Guitar 2 (play throughout)

c#|---------------|
G#|---------------|
 E|--10-----------|
 B|--x------------|
F#|--8------------|
 B|---------------|

Both Guitars

c#|-----------------|
G#|-----------------|
 E|-----------------|
 B|-00-00-----------|
F#|-00-00-0-6/0-----|
 B|-00-00-0-6/0-----|

c#|----------------------------------------------------|
G#|----------------------------------------------------|
 E|-------------14-12-14-9-10-14--------14-12-14-------|
 B|----------------------------------------------------|
F#|-0-0---------12-10-12-7-8--12--------12-10-12-------|
 B|-0-0-00000-0-----------------0-00000----------00-00-|

c#|-----|
G#|-----|
 E|-----|
 B|-----|
F#|-8-8-|
 B|-8-8-|


Let me know, if i've gone wrong.
Cheers :)
Suggest correction new What's this?
You can suggest a correction to this tab. Community and Mods will review your correction and vote to approve or reject it.
comments
We did not receive enough feedback on this tab! Please rate:
print report bad tab
1 2 3 4 5
1 comment total.
0 reply
60cyclehumm 217 wrote on September 5 2011, 07:33 am

I have just 1 thing, when you do the 6 3 5 lick and you go to the 6th fret on the 5th string, i think it sounds better if you do the 6 3 5 and then slide up to 13 on the 6th string. just saying. but other than that this helped me :) I love TGI!!!

guest
You may want to rate the tab now too:
select rating
Please do not post tabs as comments. Select "correction" instead!