Oops, an error
Loading. Please wait.

Faith Or Forgiveness Tab

version 2
version 2

Whole song

Interactive

26,939 views 15 this week
12 commentsread comments
1 2 3 4 5
accurate
x 10
add to favorites
launch autoscroll
font size
0
reset
how to read this tab
guitar tuner
Tab Pro tools
  • play this tab
  • loop segment
  • change instrument
  • show fretboard
  • metronome
Autoscroll
slow
fast
+/-
esc
set tempo
stop
Contributor
kinda just fixed up the other tab that was on UG and completed it


 Intro
|---------------------------------------------------------------------------|
|---------------------------------------------------------------------------|
|---------------------------------------------------------------------------|
|-----------------0-00-1-0-0-00000-0-00-0-0-1-0-00-1-0-0-000----------------|X2
|-7h8p7-----------0-00-1-0-0-00000-0-00-0-0-1-0-00-1-0-0-000-7h8p7----------|
|0-----10-8-7-8-7-0-00-1-0-0-00000-0-00-0-0-1-0-00-1-0-0-000------10-8-7-8-7|

 Chorus  guitar 1
|--------------------------------------|
|--------------------------------------|
|--------------------------------------|
|3--------------------7----------------|
|3--------------------7----------------|
|3--------------------7----------------|

 guitar 2
|-------------------------------------------------|
|-------------------------------------------------|
|----------10-12---14-12-9---14-12-9-7------------|
|-----------x--x----x--x-x----x--x-x-x------------|
|-----------8-10---12-10-7---12-10-7-5------------|
|-------------------------------------------------|

 Intro part again
|---------------------------------------------------------------------------|
|---------------------------------------------------------------------------|
|---------------------------------------------------------------------------|
|0-00-1-0-0-00000-0-0-0-0-1-0-00-1-0-0-000----------------------------------|
|0-00-1-0-0-00000-0-0-0-0-1-0-00-1-0-0-000-7h8p7----------------------------|
|0-00-1-0-0-00000-0-0-0-0-1-0-00-1-0-0-000------10-8-7-8-7------------------|

 Then this thing
|---------------------------------------------------------------------|
|---------------------------------------------------------------------|
|-------------------------------------------------9---10--12---13-----|
|---------------------------000-------------------x---x---x----x------|
|---------------------------000-------------------7---8---10---11-----|
|-0-3-5-6--0-3-5--0-3-5-3-0-000---0-3-5-6--0-3-5----0----0---0--------|
                            ...                     .  .   .   .

 Chorus  guitar 1
|--------------------------------------|
|--------------------------------------|
|--------------------------------------|
|3--------------------7---7p.h at some point
|3--------------------7----------------|
|3--------------------7----------------|

 guitar 2
|-------------------------------------------------|
|-------------------------------------------------|
|----------10-12---14-12-9---14-12-9-7------------|
|-----------x--x----x--x-x----x--x-x-x------------|
|-----------8-10---12-10-7---12-10-7-5------------|
|-------------------------------------------------|

 Intro again once more
|-----------------------------------------------------------|
|-----------------------------------------------------------|
|-----------------------------------------------------------|
|-0-00-1-0-0-00000-0-00-0-0-1-0-00-1-0-0-000----------------|X2
|-0-00-1-0-0-00000-0-00-0-0-1-0-00-1-0-0-000-7h8p7----------|
|-0-00-1-0-0-00000-0-00-0-0-1-0-00-1-0-0-000------10-8-7-8-7|

then..
 Guitar 1
|--------------||--------------------------------------------------------|
|--------------||--------------------------------------------------------|
|--------------||--------------------------------------------------------|
|--8~----------||--------8---------------------------12------------10----|
|--8~----------||--------8---------------------------12------------10----|
|--8~----------||--------8---------------------------12------------10----|

 Guitar 2                 Part A
|----------------------||-------------------------------------------------|
|-13-----------13~-----||--------13-------13/15\13---------13---------10--|
|-10-----10~-----------||---10--------10---------------10----10-----9---9-|x2
|-12-12~-----12~-------||-12---12---12--12-----------12--12----12--9-9---9|
|----------------------||-------------------------------------------------|
|----------------------||-------------------------------------------------|

|--------------------------------------------------------|
|--------------------------------------------------------|         
|--------------------------------------------------------|            
|--------8---------------------------12------------10----|  
|--------8---------------------------12------------10----|    
|--------8---------------------------12------------10----|       
|      
|                                                                   
|-------------------------------------------------|                 
|--------13-------13\10\11---------13---------10--|                 
|---10--------10---------------10----10-----9---9-|x1               
|-12---12---12--12-----------12--12----12--9-9---9|        
|-------------------------------------------------|
|-------------------------------------------------|
 Then Part A again


|-------------------------------|
|-------------------------------|
|-------------------------------|
|----------------8--10--7~------|
|-8-88-8-88-8~---8--10--7~------|
|-8-88-8-88-8~---8--10--7~------|
|   ..   .. 
|
|------------------------------|
|----------------11-12--9~-----|
|----------------x--x---x------|
|----------------8--10--7~-----|
|------------------------------|
|------------------------------|


 Outtro same as intro

|---------------------------------------------------------------------------|
|---------------------------------------------------------------------------|
|---------------------------------------------------------------------------|
|0-00-1-0-0-00000-0-0-0-0-1-0-00-1-0-0-000----------------------------------|
|0-00-1-0-0-00000-0-0-0-0-1-0-00-1-0-0-000----7-----------------------------|
|0-00-1-0-0-00000-0-0-0-0-1-0-00-1-0-0-000------10-8-7-8-7------------------|



 Please rate


 dark_terror104@hotmail.com
comments
print report bad tab
12 comments total. Showing first comments.
0 reply
pboy_ wrote on January 22 2009, 03:27 am

holy shit i made the biggest error.. still good but
updating soon

0 reply
Misfit342 wrote on February 4 2009, 05:10 pm

real good tab
im glad someone finally got the tab with the lead part

0 reply
Peellie wrote on May 14 2009, 01:55 am

Might wanna add the tuning for others?

I want to post or [tab]
guest
You may want to rate the tab now too:
select rating
Please do not post tabs as comments. Select "correction" instead!