Oops, an error
Loading. Please wait.

Outlive tab

version 1
version 1

Whole song

Interactive

2,217 views 1 this week
no commentswrite comment
1 2 3 4 5
2 more votes to show rating
add to favorites
×
Save as Personal and add changes to this tab that will be seen only by you. Learn more ›
×
You can save this tab as Personal to edit and correct it or add notes. All changes will be seen only by you. Learn more »
launch autoscroll
font size
0
reset
how to read this tab
guitar tuner
edit
Autoscroll
slow
fast
+/-
esc
set tempo
stop
Song: Outlive 
Artist: The Ghost Inside
Album: Get What You Give
Year: 2012
Tuning: Drop A


The guitar tones are really sludgy on this album, especially in Drop A,
so I tried my hardest to tab this correctly.
Please let me know for any mistakes so I can update the tab.

Both guitars play the same thing.
Listen carefully for the panning of when 1 guitar plays by itself.



Intro – 0:00
Ring Out/Feedback                                          
B ||--0------------------|--------------------------|
F#||--0------------------|--------------------------|
D ||--0------------------|--------------------------|
A ||--0------------------|--------------------------|
E ||--0------------------|--------------------------|
A ||---------------------|--------------------------|

0:05
Ring Out/Feedback                                     
--0----------------------|--------------------------|
--0----------------------|--------------------------|
--0----------------------|--------------------------|
--0----------------------|--------------------------|
-------------------------|--------------------------|
-------------------------|--------------------------|

0:09
Pick Scrape                               
-------------------------|
-------------------------|
-------------------------|
-------------------------|
--15\\-------------------|
--15\\-------------------|


Intro/Verse – 0:09
-------------------------|--------------------------|
-------------------------|--------------------------|
-------------------------|--------------------------|
-------------------------|--------------------------|
--0--1--3--4----0--0--0--|--0--0--0--0--0--6--5--6--|
--0--1--3--4----0--0--0--|--0--0--0--0--0--6--5--6--|
                PM PM PM    PM PM PM PM PM           
-------------------------|--------------------------|
-------------------------|--------------------------|           X4
-------------------------|--------------------------|
-------------------------|--------------------------|
--0--1--3--4----0--0--0--|--0--4--0--3--0--6--6--6--|
--0--1--3--4----0--0--0--|--0--4--0--3--0--6--6--6--|
                PM PM PM    PM PM PM PM PM           





Verse 2 – 0:30
--------------------------|--------------------------|
--------------------------|--------------------------|
--------------------------|--------------------------|
--------------------------|--------------------------|
--0--1--0--0-----0--0--0--|--0--3--0--0-----0--0--0--|
--0--1--0--0-----0--0--0--|--0--3--0--0-----0--0--0--|
  PM    PM          PM PM    PM    PM          PM PM  
--------------------------|--------------------------|
--------------------------|--------------------------|  X2
--------------------------|--------------------------|
--------------------------|--------------------------|
--0--3--0--1--0--5--0--6--|--0--5--0--3--0--6--6--6--|
--0--3--0--1--0--5--0--6--|--0--5--0--3--0--6--6--6--|
  PM    PM    PM    PM       PM    PM    PM           







Verse 3/Build Up – 0:40
--------------------------|--------------------------|
--------------------------|--------------------------|
--------------------------|--------------------------|
--------------------------|--------------------------|
--------------------------|-----------1-----------3--|
--0--0--0--0--0--0--0--0--|--0--0--0-----4--0--1-----|
  PM    PM    PM    PM       PM    PM                 
--------------------------|--------------------------|
--------------------------|--------------------------|
--------------------------|--------------------------|
--------------------------|--------------------------|
--------------------------|-----------1-----------1--|
--0--0--0--0--0--0--0--0--|--0--0--0-----4--0--1-----|
  PM    PM    PM    PM       PM    PM                 

--------------------------|--------------------------|
--------------------------|--------------------------|
--------------------------|--------------------------|
--------------------------|--------------------------|
--------------------------|-----------1-----------3--|
--0--0--0--0--0--0--0--0--|--0--0--0-----4--0--1-----|
  PM    PM    PM    PM       PM    PM                 
--------------------------|--------------------------|
--------------------------|--------------------------|
--------------------------|--------------------------|
--------------------------|--------------------------|
--------------------------|-----6--6--6--6--5--5--5--|
--0--0--0--0--0--0--0--0--|-----6--6--6--6--5--5--5--|
  PM    PM    PM    PM     





Breakdown – 0:51
--------------------------|--------------------------|
--------------------------|--------------------------|
--------------------------|--------------------------|
--------------------------|--------------------------|
--0--0--0--0--0--0-----0--|-----0--0-----0-----6--6--|
--0--0--0--0--0--0-----0--|-----0--0-----0-----6--6--|
  PM PM PM PM PM PM    PM       PM PM    PM           
--------------------------|--------------------------|
--------------------------|--------------------------|
--------------------------|--------------------------|
--------------------------|--------------------------|
--6--5--0--0--0--0-----0--|-----0--0-----3--5--5--5--|
--6--5--0--0--0--0-----0--|-----0--0-----3--5--5--5--|
        PM PM PM PM    PM       PM PM                 
--------------------------|--------------------------|
--------------------------|--------------------------|
--------------------------|--------------------------|
--------------------------|--------------------------|
--5--0--0--0--0--0-----0--|-----0--0-----0-----6--6--|
--5--0--0--0--0--0-----0--|-----0--0-----0-----6--6--|
     PM PM PM PM PM    PM       PM PM    PM           
--------------------------|--------------------------|
--------------------------|--------------------------|
--------------------------|--------------------------|
--------------------------|--------------------------|
--6--5--0--0--0--0-----0--|-----0--0-----3--5--5--5--|
--6--5--0--0--0--0-----0--|-----0--0-----3--5--5--5--|
        PM PM PM PM    PM       PM PM                 


1:00
*ring out palm mutes
--------------------------|--------------------------|
--------------------------|--------------------------|
--------------------------|--------------------------|
--------------------------|--------------------------|
--0--0--0--0--0--0--0--0--|-----0--0-----0-----6--6--|
--0--0--0--0--0--0--0--0--|-----0--0-----0-----6--6--|
  PM PM PM PM PM PM PM PM       PM PM    PM           
--------------------------|--------------------------|
--------------------------|--------------------------|
--------------------------|--------------------------|
--------------------------|--------------------------|
--6--5--0--0--0--0--0--0--|-----0--0-----3--5--5--5--|
--6--5--0--0--0--0--0--0--|-----0--0-----3--5--5--5--|
        PM PM PM PM PM PM       PM PM                 
--------------------------|--------------------------|
--------------------------|--------------------------|
--------------------------|--------------------------|
--------------------------|--------------------------|
--5--0--0--0--0--0--0--0--|-----0--0-----0-----6--6--|
--5--0--0--0--0--0--0--0--|-----0--0-----0-----6--6--|
     PM PM PM PM PM PM PM       PM PM    PM           
--------------------------|--------------------------|
--------------------------|--------------------------|
--------------------------|--------------------------|
--------------------------|--------------------------|
--6--5--0--0--0--0--------|--0--0--0-----3--5--5--5--|
--6--5--0--0--0--0--------|--0--0--0-----3--5--5--5--|
        PM PM PM PM          PM PM PM                 



Bridge – 1:10
--------------------------|--------------------------|
--------------------------|--------------------------|
--------------------------|--------------------------|
--------------------------|--------------------------|
--0-----------------------|--------------------------|
--0-----------------------|--------------------------|
 
                   
--------------------------|
--------------------------|
--------------------------|  
--------------------------|
--0--4--0--3--0--6--6--6--|
--0--4--0--3--0--6--6--6--|                                   
  PM    PM    PM           



Verse – 1:16
-------------------------|--------------------------|
-------------------------|--------------------------|
-------------------------|--------------------------|
-------------------------|--------------------------|
--0--1--3--4----0--0--0--|--0--0--0--0--0--6--5--6--|
--0--1--3--4----0--0--0--|--0--0--0--0--0--6--5--6--|
                PM PM PM    PM PM PM PM PM           
-------------------------|--------------------------|
-------------------------|--------------------------|           X2
-------------------------|--------------------------|
-------------------------|--------------------------|
--0--1--3--4----0--0--0--|--0--4--0--3--0--6--6--6--|
--0--1--3--4----0--0--0--|--0--4--0--3--0--6--6--6--|
                PM PM PM    PM PM PM PM PM           






Verse 3/Build Up – 1:26
--------------------------|--------------------------|
--------------------------|--------------------------|
--------------------------|--------------------------|
--------------------------|--------------------------|
--------------------------|-----------1-----------3--|
--0--0--0--0--0--0--0--0--|--0--0--0-----4--0--1-----|
  PM    PM    PM    PM       PM    PM                 
--------------------------|--------------------------|
--------------------------|--------------------------|  X2
--------------------------|--------------------------|
--------------------------|--------------------------|
--------------------------|-----------1-----------1--|
--0--0--0--0--0--0--0--0--|--0--0--0-----4--0--1-----|
  PM    PM    PM    PM       PM    PM    

             
--------------------------|--------------------------|
--------------------------|--------------------------|
--------------------------|--------------------------|
--------------------------|--------------------------|
--0-----------------------|--------------------------|
--0-----------------------|--------------------------|
  PM        

          

Breakdown – 1:38
*ring open    
--------------------------|--------------------------|
--------------------------|--------------------------|
--------------------------|--------------------------|
--------------------------|--------------------------|
--0--0--0--0-----0-----0--|-----0--0-----0-----1--1--|
--0--0--0--0-----0-----0--|-----0--0-----0-----1--1--|
  PM PM PM PM    PM    PM       PM PM    PM           
--------------------------|--------------------------|
--------------------------|--------------------------|
--------------------------|--------------------------|
--------------------------|--------------------------|
--1--0--0--0-----0-----0--|----0--0----0----0-0-0-0--|
--1--0--0--0-----0-----0--|----0--0----0----0-0-0-0--|
        PM PM    PM    PM      PM PM   PM   PMPMPMPM  
--------------------------|--------------------------|
--------------------------|--------------------------|
--------------------------|--------------------------|
--------------------------|--------------------------|
--0--0--0--0-----0-----0--|-----0--0-----0-----5--5--|
--0--0--0--0-----0-----0--|-----0--0-----0-----5--5--|
  PM PM PM PM    PM    PM       PM PM    PM           


1:46
*stop ringing palm mutes
--------------------------|--------------------------|
--------------------------|--------------------------|
--------------------------|--------------------------|
--------------------------|--------------------------|
--0--0--0--0--0--0-----0--|-----0--0-----0-----6--6--|
--0--0--0--0--0--0-----0--|-----0--0-----0-----6--6--|
  PM PM PM PM PM PM    PM       PM PM    PM           
--------------------------|--------------------------|
--------------------------|--------------------------|
--------------------------|--------------------------|
--------------------------|--------------------------|
--6--5--0--0--0--0-----0--|-----0--0-----3--5--5--5--|
--6--5--0--0--0--0-----0--|-----0--0-----3--5--5--5--|
        PM PM PM PM    PM       PM PM                 
--------------------------|--------------------------|
--------------------------|--------------------------|
--------------------------|--------------------------|
--------------------------|--------------------------|
--5--0--0--0--0--0-----0--|-----0--0-----0-----6--6--|
--5--0--0--0--0--0-----0--|-----0--0-----0-----6--6--|
     PM PM PM PM PM    PM       PM PM    PM           
--------------------------|--------------------------|
--------------------------|--------------------------|
--------------------------|--------------------------|
--------------------------|--------------------------|
--6--5--0--0--0--0-----0--|-----0--0-----3--1--3--4--|
--6--5--0--0--0--0-----0--|-----0--0-----3--1--3--4--|
        PM PM PM PM    PM       PM PM                 





Bridge/Build Up – 1:56
-------------------------|-----------------------|
-------------------------|-----------------------|
-------------------------|-----------------------|
-------------------------|-----------------------|
-------------------------|--3--------1--1--1--0--|
-------------------------|--3--------1--1--1--0--|
                                  PM PM     




Breakdown – 2:00
--------------------------|--------------------------|
--------------------------|--------------------------|
--------------------------|--------------------------|
--------------------------|--------------------------|
--0--0--0--3--1--0--0--0--|--0--0--0--3--1--0--0--0--|
--0--0--0--3--1--0--0--0--|--0--0--0--3--1--0--0--0--|
  PM    PM       PM PM       PM    PM       PM PM     
--------------------------|--------------------------|
--------------------------|--------------------------|  X4
--------------------------|--------------------------|
--------------------------|--------------------------|
--0--0--0--3--1--0--0--0--|--0--1--3--0--4--3--0--0--|
--0--0--0--3--1--0--0--0--|--0--1--3--0--4--3--0--0--|
  PM    PM       PM PM       PM       PM       PM     



End – 2:31
-------------------------|
-------------------------|
-------------------------|
-------------------------|
--0--0-------------------|
--0--0-------------------|
  PM                  



Tablature Legend
----------------
PM - palm mute
b - bend
L - tied note
x - dead note
g - grace note
(n) - ghost note
> - accentuded note
PH - pitch harmonic
h - hammer on
p - pull off
s - slide

            
            
Suggest correction
Creating personal tab
Creating personal tab
You can edit any tab online and save it as your Personal.

You can edit, replace or remove any tab part or add personal notes – all changes will be seen only by you.

Personal tabs can be accessed anytime from any device, even offline.
Learn more »
Give kudos to tab author, rate the tab!
1 2 3 4 5
comments
print report bad tab
guest
You may want to rate the tab now too:
select rating
Wanna post a correction for this tab? Suggest correction