Oops, an error
Loading. Please wait.

This Is What I Know About Sacrifice Tab

version 1
version 1

Whole song

Interactive

2,261 views 3 this week
no commentswrite comment
1 2 3 4 5
please rate
add to favorites
launch autoscroll
font size
0
reset
how to read this tab
guitar tuner
Autoscroll
slow
fast
+/-
esc
set tempo
stop
Help us to improve Ultimate-Guitar.com Take our survey!
×
Author
Tuning
A E A D F# B
Song: This Is What I Know About Sacrifice
Artist: The Ghost Inside
Album: Get What You Give
Year: 2012
Tuning: Drop A





Intro/1st Guitar
B ||------------------------------------|---------------------------------------|
F#||------------------------------------|---------------------------------------|X3
D ||------------------------------------|---------------------------------------|
A ||------------------------------------|---------------------------------------|
E ||------------------------------------|---------------------------------------|
A ||--12-0-0-0-0-0-0-0-12-0-0-0-0-0-0-0-|--12-0-0-0-0-0-0-0-12-0-13-0-13-0-13-0-|


------------------------------------|-------------------------------------------|
------------------------------------|-------------------------------------------|
------------------------------------|-------------------------------------------|
------------------------------------|-------------------------------------------|
------------------------------------|-------------------------------------------|
--12-0-0-0-0-0-0-0-12-0-0-0-0-0-0-0-|--12-0-0-0-0-0-0-0-13b---------------------|


Intro/2nd guitar
------------------------------------|-------------------------------------------|
------------------------------------|-------------------------------------------|X2
------------------------------------|-------------------------------------------|
------------------------------------|-------------------------------------------|
------------------------------------|-------------------------------------------|
------------------------------------|-----------------------12-0-13-0-13-0-13-0-|


------------------------------------|------------------------------------------|
------------------------------------|------------------------------------------|cont.
------------------------------------|------------------------------------------|
------------------------------------|------------------------------------------|
--0---------------------------------|------------------------------------------|
--0---------------------------------|----------------------12-0-13-0-13-0-13-0-|

------------------------------------|------------------------------------------|
------------------------------------|------------------------------------------|
------------------------------------|------------------------------------------|
------------------------------------|------------------------------------------|
--0---------------------------------|------------------------------------------|
--0---------------------------------|----------------------13b-----------------|






Breakdown/Both Guitars
  PM PM PM PM     PM PM PM PM        PM PM PM PM           PM PM   
------------------------------------|------------------------------------------|
------------------------------------|------------------------------------------|X2
------------------------------------|------------------------------------------|
------------------------------------|------------------------------------------|
--0--0--0--0-------0--0--0--0-------|--0--0--0--0------------------------------|
--0--0--0--0-------0--0--0--0-------|--0--0--0--0----------0-0-13-0-13-0-13-0--|


     PM PM PM        PM PM PM             PM PM PM       PM PM    
------------------------------------|------------------------------------------|
------------------------------------|------------------------------------------| cont.
------------------------------------|------------------------------------------|
------------------------------------|------------------------------------------|
-----0--0--0-----------0--0--0------|-----0--0--0------------------------------|
--12-0--0--0-------12--0--0--0------|--12-0--0--0--------0--0--13-0-13-0-13-0--|

     PM PM PM        PM PM PM             PM PM PM       PM    
------------------------------------|------------------------------------------|
------------------------------------|------------------------------------------| 
------------------------------------|------------------------------------------|
------------------------------------|------------------------------------------|
-----0--0--0-----------0--0--0------|-----0--0--0--------0---------------------|
--12-0--0--0-------12--0--0--0------|--12-0--0--0--------0---—13b--------------|


Verse/1st Guitar
  PM PM PM PM                    PM    PM PM PM        PM PM PM  
------------------------------------|----------------------------------|
------------------------------------|----------------------------------|cont.
------------------------------------|----------------------------------|
------------------------------------|-----------3---3-----------5---5--|
--0--0--0--0---------------------0--|--0--0--0--1---1--0--0--0--3---3--|
--0--0--0--0---------------------0--|--0--0--0---------0--0--0---------|

  PM PM PM PM            PM    PM PM PM        PM PM PM           
-----------------------------------|----------------------------------|
-----------------------------------|----------------------------------|cont.
-----------------------------------|----------------------------------|
-----------------------------------|----------------------------------|
--0--0--0--0--------------------0--|--0--0--0--1---1--0--0--0--3---3--|
--0--0--0--0--------------------0--|--0--0--0--1---1--0--0--0--3---3--|

 PM PM PM PM                    PM    PM PM PM        PM PM PM           
-----------------------------------|----------------------------------|
-----------------------------------|----------------------------------|cont.
-----------------------------------|----------------------------------|
-----------------------------------|-----------3---3-----------5---5--|
--0--0--0--0----------8--\------0--|--0--0--0--1---1--0--0--0--3---3--|
--0--0--0--0----------8--\------0--|--0--0--0---------0--0--0---------|

  PM PM PM PM                  PM    PM PM PM        PM PM PM      
----------------------------------|----------------------------------|
----------------------------------|----------------------------------|
----------------------------------|----------------------------------|
----------------------------------|----------------------------------|
--0--0--0--0-------------------0--|--0--0--0--1---1--0--0--0--3---3--|
--0--0--0--0-------------------0--|--0--0--0--1---1--0--0--0--3---3--|



Verse/2nd Guitar
  PM PM PM PM                  PM    PM PM PM        PM PM PM         
----------------------------------|----------------------------------|
----------------------------------|----------------------------------|cont.
----------------------------------|----------------------------------|
----------------------------------|-----------3---3-----------5---5--|
--0--0--0--0-------------------0--|--0--0--0--1---1--0--0--0--3---3--|
--0--0--0--0-------------------0--|--0--0--0---------0--0--0---------|

  PM PM PM PM                                 PM PM PM        PM PM PM         
-------------------------------------------|----------------------------------|
-------------------------------------------|----------------------------------|cont.
-------------------------------------------|----------------------------------|
-------------------------------------------|----------------------------------|
--0--0--0--0-------------------------------|--0--0--0--1---1--0--0--0--3---3--|
--0--0--0--0--8-0-10-0-10-0-12-0-13-0-12-0-|--0--0--0--1---1--0--0--0--3---3--|

PM PM PM PM                    PM    PM PM PM        PM PM PM           
-----------------------------------|----------------------------------|
-----------------------------------|----------------------------------|cont.
-----------------------------------|----------------------------------|
-----------------------------------|-----------3---3-----------5---5--|
--0--0--0--0----------8--\------0--|--0--0--0--1---1--0--0--0--3---3--|
--0--0--0--0----------8--\------0--|--0--0--0---------0--0--0---------|

  PM PM PM PM                                 PM PM PM        PM PM PM         
-------------------------------------------|----------------------------------|
-------------------------------------------|----------------------------------|
-------------------------------------------|----------------------------------|
-------------------------------------------|----------------------------------|
--0--0--0--0-------------------------------|--0--0--0--1---1--0--0--0--3---3--|
--0--0--0--0--8-0-10-0-10-0-12-0-13-0-12-0-|--0--0--0--1---1--0--0--0--3---3--|



Breakdown/Both Guitars
  PM PM PM PM   PM PM PM PM PM   PM    PM PM PM        PM PM PM         
------------------------------------|----------------------------------|
------------------------------------|----------------------------------|cont.
------------------------------------|----------------------------------|
------------------------------------|-----------3---3-----------5---5--|
--0--0--0--0----0--0--0--0--0----0--|--0--0--0--1---1--0--0--0--3---3--|
--0--0--0--0----0--0--0--0--0----0--|--0--0--0---------0--0--0---------|

  PM PM PM PM   PM PM PM PM PM   PM    PM PM PM        PM PM PM         
------------------------------------|----------------------------------|
------------------------------------|----------------------------------|
------------------------------------|----------------------------------|
------------------------------------|----------------------------------|
--0--0--0--0----0--0--0--0--0----0--|--0--0--0--1---1--0--0--0--3---3--|
--0--0--0--0----0--0--0--0--0----0--|--0--0--0--1---1--0--0--0--3---3--|





Breakdown/1st Guitar
  PM PM PM PM   PM PM PM PM PM   PM    PM PM PM        PM PM PM         
------------------------------------|----------------------------------|
------------------------------------|----------------------------------|cont.
------------------------------------|----------------------------------|
------------------------------------|-----------3---3-----------5---5--|
--0--0--0--0----0--0--0--0--0----0--|--0--0--0--1---1--0--0--0--3---3--|
--0--0--0--0----0--0--0--0--0----0--|--0--0--0---------0--0--0---------|

                                          PM PM PM        PM PM PM         
---------------------------------------|----------------------------------|
---------------------------------------|----------------------------------|
---------------------------------------|----------------------------------|
---------------------------------------|----------------------------------|
---------------------------------------|--0--0--0--1---1--0--0--0--3---3--|
--0-0-0-0-8-0-10-0-10-0-12-0-13-0-12-0-|--0--0--0--1---1--0--0--0--3---3--|



Breakdown/2nd Guitar
                                          PM PM PM        PM PM PM         
---------------------------------------|----------------------------------|
---------------------------------------|----------------------------------|cont.
---------------------------------------|----------------------------------|
---------------------------------------|-----------3---3-----------5---5--|
---------------------------------------|--0--0--0--1---1--0--0--0--3---3--|
--0-0-0-0-8-0-10-0-10-0-12-0-13-0-12-0-|--0--0--0---------0--0--0---------|

  PM PM PM PM   PM PM PM PM PM   PM    PM PM PM        PM PM PM         
------------------------------------|----------------------------------|
------------------------------------|----------------------------------|
------------------------------------|----------------------------------|
------------------------------------|----------------------------------|
--0--0--0--0----0--0--0--0--0----0--|--0--0--0--1---1--0--0--0--3---3--|
--0--0--0--0----0--0--0--0--0----0--|--0--0--0--1---1--0--0--0--3---3--|




Build Up/1st Guitar
  PM PM PM PM      PM PM PM PM         PM PM PM PM     PM PM       
------------------------------------|--------------------------------------|
------------------------------------|--------------------------------------|
------------------------------------|--------------------------------------|
------------------------------------|--------------------------------------|
--0--0--0--0-------0--0--0--0-------|--0--0--0--0------0--0----------------|
--0--0--0--0-------0--0--0--0-------|--0--0--0--0------0--0-13-0-13-0-13-0-|

  PM PM PM PM           PM PM PM PM              PM PM PM PM           PM PM            
----------------------------------------------|---------------------------------------------|
----------------------------------------------|---------------------------------------------|
----------------------------------------------|---------------------------------------------|
----------------------------------------------|---------------------------------------------|
--0--0--0--0------------0--0--0--0------------|--0--0--0--0------------0--0-----------------|
--0--0--0--0--12-0-12-0-0--0--0--0--12-0-12-0-|--0--0--0--0--12-0-12-0-0--0--13-0-13-0-13-0-|


 Build Up/2nd Guitar
  PM PM PM PM           PM PM PM PM              PM PM PM PM           PM PM            
----------------------------------------------|---------------------------------------------|
----------------------------------------------|---------------------------------------------|
----------------------------------------------|---------------------------------------------|
----------------------------------------------|---------------------------------------------|
--0--0--0--0------------0--0--0--0------------|--0--0--0--0------------0--0-----------------|
--0--0--0--0--12-0-12-0-0--0--0--0--12-0-12-0-|--0--0--0--0--12-0-12-0-0--0--13-0-13-0-13-0-|

  PM PM PM PM     PM PM PM PM        PM PM PM PM     PM PM       
----------------------------------|-----------------------------|
----------------------------------|-----------------------------|
----------------------------------|-----------------------------|
----------------------------------|-----------------------------|
--0--0--0--0------0--0--0--0------|--0--0--0--0------0--0-------|
--0--0--0--0------0--0--0--0------|--0--0--0--0------0--0-------|






Breakdown/Both Guitars
  PM PM PM PM     PM PM PM PM        PM PM PM PM     PM PM                 
----------------------------------|---------------------------------------|
----------------------------------|---------------------------------------|X2
----------------------------------|---------------------------------------|
----------------------------------|---------------------------------------|
--0--0--0--0------0--0--0--0------|--0--0--0--0---------------------------|
--0--0--0--0------0--0--0--0—-----|--0--0--0--0------0--0--13-0-13-0-13-0-|



Breakdown/Both Guitars
  PM PM PM PM  PM  PM PM PM PM  PM     PM PM PM PM   PM   PM PM                 
------------------------------------|----------------------------------------|cont.
------------------------------------|----------------------------------------|
------------------------------------|----------------------------------------|
------------------------------------|----------------------------------------|
--0--0--0--0---0---0--0--0--0---0---|--0--0--0--0---0------------------------|
--0--0--0--0---0---0--0--0--0---0---|--0--0--0--0---0---0--0--13-0-13-0-13-0-|

  PM PM PM PM  PM  PM PM PM PM  PM     PM PM PM PM   PM   
------------------------------------|----------------------------------------|
------------------------------------|----------------------------------------|cont.
------------------------------------|----------------------------------------|
------------------------------------|----------------------------------------|
--0--0--0--0---0---0--0--0--0---0---|--0--0--0--0---0------------------------|
--0--0--0--0---0---0--0--0--0---0---|--0--0--0--0---0---13b------------------|

-------------------||
-------------------||
-------------------||
-------------------||
--0----------------||
--0----------------||






Tablature Legend
----------------
PM - palm mute
b - bend
L - tied note
x - dead note
g - grace note
(n) - ghost note
> - accentuded note
PH - pitch harmonic
h - hammer on
p - pull off
Suggest correction
Give kudos to tab author, rate the tab!
1 2 3 4 5
comments
print report bad tab
guest
You may want to rate the tab now too:
select rating
Wanna post a correction for this tab? Suggest correction