Oops, an error
Loading. Please wait.

White Light Tab

version 1
version 1

Whole song

Interactive

19,698 views 120 this week
6 commentsread comments
1 2 3 4 5
excellent!
x 7
add to favorites
launch autoscroll
font size
0
reset
how to read this tab
guitar tuner
Tab Pro tools
  • play this tab
  • loop segment
  • change instrument
  • show fretboard
  • metronome
Autoscroll
slow
fast
+/-
esc
set tempo
stop
Contributor
Tuning
B F# B E G# C#
-----------------------------------------------------------------------------
                     WHITE LIGHT - The Ghost Inside
-----------------------------------------------------------------------------
Tabbed by:Adrian
E-mail:afonda950512gmail.com
Me playing the song:http://www.youtube.com/watch?v=mPYy365L5LY

Tuning:Drop B

CLEAN TONE
|-------Let all notes ring out----------------------------------|
|---------------------------------------------------------------|
|---------0~----------0~-----------4`----------4~--4----5-------|(x2)listen
|-----2~--2~------2~--2~-------2~--2~------2~--2~--2(x4)2(x3)---|for changes
|-3~3~--3~3~--2~2~--2~2~---0~0~--0~0~--0~0~--0~0~--0----0-------|
|---------------------------------------------------------------|

|----------|
|----------|
|----------|
|-7--------|
|-7(x12)---|
|-7--------|

SWITCH TO DISTORTION
|----------------------------------------|Pay attention to the strumming
|----------------------------------------|pattern for this part. Listen to
|----------------------------------------|song closely.
|-7-----9----10-------7-----9----5-------|(x2)
|-3(x13)5(x6)7-(x5)---3(x13)5(x6)3(x5)---|
|-3-----5----7--------3-----5----2-------|

|------------------------------------------------------|
|------------------------------------------------------|
|------------------------------------------------------|
|-7------------9----10-------7------------9----5-------|(x2)
|-3(x16)-PAUSE-5(x8)7-(x8)---3(x16)-PAUSE-5(x8)3(x8)---|
|-3------------5----7--------3------------5----2-------|

|-----------------------|
|-----------------------|
|-----------------------|
|-10(x8)-9(x3)----------|
|--------------10(x4)---|
|-----------------------|

|-----------------------------------------|
|------------------------------------12---|
|---------12----------------12------------|
|-10-9-10-----10-9-12--10-9-----10-9------|  
|-----------------------------------------| 
|-----------------------------------------| 
then                                        
|-----------------------------------------| 
|---------------------------12-------13<-------(DON'T PLAY THIS NOTE
|---------12------------------------------|     ON THE 4TH TIME)
|-10-9-10-----10-9-12--10-9-----10-9------|
|-----------------------------------------|
|-----------------------------------------|
REPEAT BOTH BARS X4

|----------------------------------------------------------|
|----------------------------------------------------------|
|-------------------------------------------------SLIDE----|
|-10------14------9--------10------7------9--------DOWN----|
|-7-(x16)-10(x16)-5(x32)---7-(x16)-3(x16)-5(x32)--12\\\\---|
|-7-------10------5--------7-------3------5-------12\\\\---|

|------------------------------------------------------|
|------------------------------------------------------|
|------------------------------------------------------|
|-7------------9----10-------7------------9----5-------|(x2)
|-3(x16)-PAUSE-5(x8)7-(x8)---3(x16)-PAUSE-5(x8)3(x8)---|
|-3------------5----7--------3------------5----2-------|

|-----------------------------------------|
|------------------------------------12---|
|---------12----------------12------------|
|-10-9-10-----10-9-12--10-9-----10-9------|  
|-----------------------------------------| 
|-----------------------------------------| 
then                                        
|-----------------------------------------| 
|---------------------------12-------13---|
|---------12------------------------------|    
|-10-9-10-----10-9-12--10-9-----10-9------|
|-----------------------------------------|
|-----------------------------------------|
REPEAT BOTH BARS X4

CLEAN
|-------------------------|
|-----5~---------5~-------|
|---5~--5~-----5~--5~-----|
|-3~-------3-2~-------2---|
|-------------------------|
|-------------------------|

DISTORTION
|---------------------|
|---------------------|
|-12----10----5-------|
|--x(x5)-x(x4)x(x8)---|
|-10-----8----3-------|
|---------------------|

CLEAN
|-------------------------|
|-----5~---------5~-------|
|---5~--5~-----5~--5~-----|
|-3~-------3-2~-------2---|
|-------------------------|
|-------------------------|

DISTORTION
|---------------------|
|---------------------|
|-12----10----5-------|
|--x(x5)-x(x4)x(x8)---|
|-10-----8----3-------|
|---------------------|

This next part will be a pain to tab so.
I'll just give you the chords. Play it 
similarly to the intro.
CLEAN
|---|---|---|---|---|---|
|---|---|---|---|---|---|
|-0-|-0-|-4-|-5-|-5-|-4-|
|-2-|-2-|-2-|-2-|-2-|-2-|(x4)
|-3-|-2-|-0-|-0-|-0-|-0-|
|---|---|---|---|---|---|

DISTORTION W/ DELAY AND REVERB
|---------------------------------------|
|---------------------------------------|
|-5/9~-12~-7~-9~------------------------|
|---------------10~--9\7/9-10-12-9-10~--|
|---------------------------------------|
|---------------------------------------|

|---------------------------------------|
|---------------------------------------|
|---9~-12~-7~-10~-9~---------12---------|
|--------------------10-9-10----10-9\7--|
|---------------------------------------|
|---------------------------------------|

then
|---------------------------------------|
|---------------------------------------|
|---9~-12~-7~-9~------------------------|
|---------------10~--9\7/9-10-12-9-10~--|
|---------------------------------------|
|---------------------------------------|

|---------------------------------------|
|---------------------------------------|
|---9~-12~-7~-10~-9~---------7-9--------|
|--------------------10-9-10-----9-10---|
|---------------------------------------|
|---------------------------------------|

then
|---------------------------------------|
|---------------------------------------|
|-5/9~-12~-7~-9~------------------------|
|---------------10~--9\7/9-10-12-9-10~--|
|---------------------------------------|
|---------------------------------------|

|---------------------------------------|
|---------------------------------------|
|---9~-12~-7~-10~-9~---------12---------|
|--------------------10-9-10----10-9\7--|
|---------------------------------------|
|---------------------------------------|

|------------|
|------------|
|-5--4--2~---|
|-2--2--2~---|
|-0--0--0~---|
|------------|

FIN
comments
print report bad tab
6 comments total. Showing first comments.
0 reply
_Javier_ wrote on July 8 2012, 03:35 am

great tab, also this song is just both awesome and sad

-1 reply
agesofwar wrote on August 24 2012, 12:47 am

at the clean part, the second chord should be:


|-----|
|-----|
|-0-0-|
|-2-0-|
|-3-2-|
|-----|

Besides that, awesome tab, awesome song.

0 reply
hackerslasher wrote on October 5 2012, 10:00 am

awesome song. glad someone made it

I want to post or [tab]
guest
You may want to rate the tab now too:
select rating
Please do not post tabs as comments. Select "correction" instead!