Oops, an error
Loading. Please wait.

White Light tab

version 2
version 2

Whole song

Interactive

550 views 6 this week
no commentswrite comment
1 2 3 4 5
3 more votes to show rating
add to favorites
×
Save as Personal and add changes to this tab that will be seen only by you. Learn more ›
×
You can save this tab as Personal to edit and correct it or add notes. All changes will be seen only by you. Learn more »
launch autoscroll
font size
0
reset
how to read this tab
guitar tuner
edit
Autoscroll
slow
fast
+/-
esc
set tempo
stop
-------------------------------------------------------------------------------
                             White Light - The Ghost Inside
-------------------------------------------------------------------------------
Tabbed by: Jaydogs Fortay
E-mail: jalen_man@hotmail.com

Extremely touching song, yet no tabs. Learned this by ear, may be a few mistakes. Still 
better then nothing

Tuning: Drop B

Intro (Clean, part distorted)

C#|------------------------------------------------------------------------------| x2
G#|------------------------------------------------------------------------------|
E |-----------------------------------------------------5-5-5p4-4----------------|
B |---2---2----0---0--------2--2------2-2-2-2------------------------------------|
F#|---3---3----2---2----2h3-0--0------0-0-0-0------------------------------------|
B |------------------------------------------------------------------------------|

End of intro

|---------------------------------------------------------------------------|
|---------------------------------------------------------------------------|
|---------------------------------------------------------------------------|
|----2-2-2-2-2-2-2-2-2-2-2-2-2----------------------------------------------|
|----0-0-0-0-0-0-0-0-0-0-0-0-0----------------------------------------------|
|---------------------------------------------------------------------------|


Verse
|------------------------------------------------------------------------------| x4
|------------------------------------------------------------------------------|
|------------------------------------------------------------------------------|
|------------------------------------------------------------------------------|
|---3-3-3-3-5-5-5-7-7----------------------------------------------------------|
|---3-3-3-3-5-5-5-7-7----------------------------------------------------------|


Pre-Chorus
|---------------------------------------------------------------------------| x2
|---------------------------------------------------------------------------|
|---------------------------------------------------------------------------|
|---------------------------------------------------------------------------|
|---3333333333-5555h777-----------------------------------------------------|
|---3333333333 5555h777-----------------------------------------------------|

Little riff before chorus
|---------------------------------------------------------------------------|
|---------------------------------------------------------------------------|
|----5555555544440000-------------------------------------------------------|
|---------------------------------------------------------------------------|
|---------------------------------------------------------------------------|
|---------------------------------------------------------------------------|


Chorus
|---------------------------------------------------------------------------| x4
|---------------------------------------------------------------------------|
|---------------------------------------------------------------------------|
|---------------------------------------------------------------------------|
|---3-3-3-3-3-3-3-3-5-5-5-5-5-5-5-5-7-7-7-7-7-7-7-7-------------------------|
|---3-3-3-3 3 3 3 3-5-5-5-5-5-5-5-5-7-7-7-7-7-7-7-7-------------------------|

I havent learned the bit before the bridge yet


Bridge
|---------------------------------------------------------------------------| x2
|---------------------------------------------------------------------------|
|----------------------------------------4-5-5-4-5--------------------------|
|------2---5-2 0------0---5---0-----2---------------------------------------|
|--3-3---3--------2-2---2---2---0-0---0-------------------------------------|
|---------------------------------------------------------------------------|

Solo
|------------------------------------------------------------------------------|
|--------------------------------------------------------------8---------------|
|--9--12-7--9--5--4p2h4-5/7\4--5------9--12--7--10-9--5p4h5------5p4--2--------|
|------------------------------------------------------------------------------|
|------------------------------------------------------------------------------|
|------------------------------------------------------------------------------|

e|-************************************

| /   slide up
| \   slide down
| h   hammer-on
| p   pull-off
| ~   vibrato
| +   harmonic
| x   Mute note
| b   Bend
| pb  Pre-bend
| br  Bend release
| pbr Pre-bend release
| brb Bend release bend

************************************

            
            
Suggest correction
Creating personal tab
Creating personal tab
You can edit any tab online and save it as your Personal.

You can edit, replace or remove any tab part or add personal notes – all changes will be seen only by you.

Personal tabs can be accessed anytime from any device, even offline.
Learn more »
Give kudos to tab author, rate the tab!
1 2 3 4 5
comments
print report bad tab
guest
Wanna post a correction for this tab? Suggest correction