Oops, an error
Loading. Please wait.

As They Breed They Swarm Bass Tab

996 views 1 this week
no commentswrite comment
1 2 3 4 5
please rate
add to favorites
launch autoscroll
font size
0
reset
guitar tuner
Tab Pro tools
  • play this tab
  • loop segment
  • change instrument
  • show fretboard
  • metronome
×
Best way to learn
"As They Breed They Swarm"
Autoscroll
slow
fast
+/-
esc
set tempo
stop
Contributor
-------------------------------------------------------------------------------
              As They Breed They Swarm - The Ghost Of A Thousand
-------------------------------------------------------------------------------

Tuning: Drop D (DADG)


1st Verse
G|---------------------------------------------------------------------------|
D|----------------------------------------------------------0-0-0-3-0-3-5----|
A|---------------------------------------------------------------------------|
D|-5\--3-3-6-6----3-3-5------3-6-3-3---0--5----3-3-6-6-----------------------|

G|---------------------------------------------------------------------------|
D|----------------------------------------------------------5-5-5-8-5--------|
A|---------------------------------------------------------------------------|
D|-5\--3-3-6-6----3-3-5------3-6-3-3---0--5----3-3-6-6-----------------8-7---|


Chorus
G|---------------------------------------------------------------|
D|---------------------------------------------------------------|
A|-----------8------------8------------11------------------------|
D|5-5--5-5-5-----5--5-5-5-----5--5-5-5-----10-10-10-10-10-8-8----|x2


2nd Verse
G|---------------------------------------------------------------------------|
D|-------------------------------------------------------4/5p0---------------|
A|-------------------------------------------------------------3-6-3-1-0-----|
D|-5\--3-3-6-6----3-3-5------3-6-3-3---0--5----3-3-6-6-----------------------|

G|---------------------------------------------------------------------------|
D|----------------------------------------------------------5-5-5-8-5--------|
A|---------------------------------------------------------------------------|
D|-5\--3-3-6-6----3-3-5------3-6-3-3---0--5----3-3-6-6-----------------8-7---|


Chorus x4

Then...
G|---------------------------------------------------------------------|
D|---------------3-1--1--------------------------3-1----1---3---3------|
A|---------0-3-5--------1----------------------3---------1---1---1-----|
D|-5---0-3-------------------------3/5--5--3-5-------------------------|

G|---------------------------------------------------------------------|
D|---------------3-1--1-----3-----------------------3------------------|
A|---------0-3-5-------1--1---1---------------0-3-5---6---6------------|
D|-5---0-3------------------------0-3-5--0-3---------------6----5------|

No bass, then...

G|----------------|
D|----------------|
A|----------------|
D|-5---------5----|

G|-----------------------------------------------------------------------|
D|-------------------------------------------------------------111-------|
A|----------------------------------------3--------3--------------3111---|
D|-5555555555555555555555555555033--111111----11111---111111111-------3--| x3


REST

G|----------|
D|----------|
A|----------|
D|---8--8---|

Chorus x2

Finish with
G|-----------------------------------------|
D|-----------------------------------------|
A|----------8-------------8-------------10-|
D|5-5-5-5-5-----5-5-5-5-5-----5-5-5-5-5----|


 h hammer on
 p pull off
 /  slide up
 \  slide down
comments
We did not receive enough feedback on this tab! Please rate:
print report bad tab
1 2 3 4 5
I want to post or [tab]
guest
You may want to rate the tab now too:
select rating
Please do not post tabs as comments. Select "correction" instead!