Oops, an error
Loading. Please wait.

Bored Of Maths Bass Tab

version 1
version 1

Whole song

Interactive

983 views 1 this week
1 commentread comment
1 2 3 4 5
please rate
add to favorites
launch autoscroll
font size
0
reset
guitar tuner
Autoscroll
slow
fast
+/-
esc
set tempo
stop
Help us to improve Ultimate-Guitar.com Take our survey!
×
Author
Band: The Ghost Of A Thousand
Song: Bored Of Math

I only found one GOAT tab, and no bass tabs, so I thought I'd have a go at
tabbing one my myself. This is my first tab so please go easy if it's wrong
(prechorus especially).

Intro
G|--------------------------------|
D|--------------------------------|
A|--------------------------------|
E|----222222222~~---2-2-----------|

G|------------------------------------------|
D|------------------------------------------|
A|-------------------------------------3~~--|
E|--2----2----2----2----2----2----2---------|


Verse
G|----------------------------------------|
D|----------------------------------------|
A|-------------------------2-2------------| x4
E|-2-2---0-2-2---0-2-2---0------5--5-0-0--|


Prechorus (sort of)
G|------------------------------------------|
D|------------------------------------------|
A|----------------------------2----------2--|
E|-33322222-66655555--0-3-0-3----0-3-0-3----|


G|------------------------------------------|
D|------------------------------------------|
A|----------------------------2----------2--| x2
E|-33333333-22226655--0-3-0-3----0-3-0-3----|

G|-------------------|
D|-------------------|
A|-------------------|
E|-33333333-22222222-|


Chorus

Bass doesn't play for first four bars

G|---------------------------|
D|---------------------------|
A|-3----3----3--3----3----3~-| x3
E|--2----2----2--2----2------|


G|------------------------------|
D|------------------------------|
A|-3----3----3--3----3----3-3~~-| 
E|--2----2----2--2----2---------|

Outro

G|------------|
D|------------|
A|--3~--3-----| x8
E|--------2~--|

There you have it! One of the best songs by an awesome band!
Suggest correction
What's this?
You can suggest a correction to this tab. Community and Mods will review your correction and vote to approve or reject it.
comments
We did not receive enough feedback on this tab! Please rate:
print report bad tab
1 2 3 4 5
1 comment total.
0 reply
Gary the Hann 50 wrote on May 15 2009, 08:16 am

lol at the title

guest
You may want to rate the tab now too:
select rating
Please do not post tabs as comments. Select "correction" instead!