Oops, an error
Loading. Please wait.

Bright Lights Tab

2,149 views 1 this week
no commentswrite comment
1 2 3 4 5
1 last vote to show rating
add to favorites
launch autoscroll
font size
0
reset
how to read this tab
guitar tuner
Autoscroll
slow
fast
+/-
esc
set tempo
stop
Help us to improve Ultimate-Guitar.com Take our survey!
×
Author
Difficulty
Tuning
novice
D A D G B E
-------------------------------------------------------------------------------
                   Bright Lights - The Ghost Of A Thousand
-------------------------------------------------------------------------------

  Tabbed by: Bobby Bunn
  Email: bobbybunn@live.com

  Tuning: D/A/D/G/B/E

  This is the rhythm guitar part of Bright Lights by The Ghost Of A Thousand.
  Please comment as this is my first tab, tell me if I have done anything wrong or
  if it needs any improvements. 
  I will work out and tab the lead guitar for this song when I get back from holiday

  0:00 / 0:24

e|---------------------------------|        ---------------------------------|
B|---------------------------------|        ---------------------------------|
G|-----------------------2-4-5-----|        ---------------------------------|
D|---4-4--2h4-4--2h4-4---2-4-5-----|  x 7   ----4-4-4-2h4-4-2h4--------------| 
A|---4-4--2h4-4--2h4-4-0-0-2-3-----|  then  ----4-4-4-2h4-4-2h4--------------|   
D|---4-4--2h4-4--2h4-4-------------|        ----4-4-4-2h4-4-2h4--------------|

  0:25 / 1:03

e|---------------------------------------------------------------------------|
B|---------------------------------------------------------------------------|
G|-----------------------2-4-5-----------------------------------------------|
D|---4-4--2h4-4--2h4-4---2-4-5-----4-4--2h4-4--2h4-4-------------------------|   x 6
A|---4-4--2h4-4--2h4-4-0-0-2-3-----4-4--2h4-4--2h4-4-------------------------|
D|---4-4--2h4-4--2h4-4-------------4-4--2h4-4--2h4-4--0-9-0-7-0-10-----------|

  1:03 / 1:25

e|---------------------------------------------------------------------------|
B|---------------------------------------------------------------------------|
G|---------------------------------------------------------------------------|
D|---4-2-4-4--4-2-4-4--4-2-4-4--4-2-4-4--------------------------------------|   
A|---4-2-4-4--4-2-4-4--4-2-4-4--4-2-4-4--------------------------------------|
D|---4-2-4-4--4-2-4-4--4-2-4-4--4-2-4-4--------------------------------------|

e|---------------------------------------------------------------------------|
B|---------------------------------------------------------------------------|
G|---------------------------------------------------------------------------|
D|---4-2-4-4--4-2-4-4--4-2-4-4--7-2------------------------------------------|
A|---4-2-4-4--4-2-4-4--4-2-4-4--7-2------------------------------------------|   x 2
D|---4-2-4-4--4-2-4-4--4-2-4-4--7-2------------------------------------------|

e|---------------------------------------------------------------------------|
B|---------------------------------------------------------------------------|
G|---------------------------------------------------------------------------|
D|------------------------------------------7-2------------------------------|
A|------------------------------------------7-2------------------------------|
D|---4-4-2-4-5-2--4-4-2-4-7-2--4-4-2-4-5-2--7-2------------------------------|

e|---------------------------------------------------------------------------|
B|---------------------------------------------------------------------------|
G|---------------------------------------------------------------------------|
D|------------------------------------------7-2-9-2--------------------------|   
A|------------------------------------------7-2-9-2--------------------------|
D|---4-4-2-4-5-2--4-4-2-4-7-2--4-4-2-4-5-2--7-2-9-2--------------------------|

  1:26 / 1:44

e|---------0-0---------------------------------------------------------------|
B|---------0-0---------------------------------------------------------------|
G|---4-2-5-2-2---------------------------------------------------------------|
D|---4-2-5-2-2---------------------------------------------------------------|
A|---2-0-3-0-0---------------------------------------------------------------|
D|--------------4-4-4-4-4-2-2-4-4-4-4-4-4-4-4-4------------------------------|

e|-----0---0-0-----------------------------------------0----0----------------|
B|-----0---0-0-----------------------------------------0----0----------------|
G|---4-2-5-2-2-------------------------------------4-5-2----0----------------|
D|---4-2-5-2-2-------------------------------------4-5-2--2------------------|
A|---2-0-3-0-0-------------------------------------2-3-0--2------------------|
D|--------------4-4-4-4-4-2-2-4-4-4-4-4-4-4-4-4-----------2------------------|

  1:44 / 1:55

e|---------------------------------------------------------------------------|
B|---------------------------------------------------------------------------|
G|---------------------------------------------------------------------------|
D|---------------------------------------------------------------------------|  
A|---------------------------------------------------------------------------|
D|---4-4--2h4-4--2h4-4--0-7-9-10---4-4--2h4-4--2h4-4-------------------------|

e|---------------------------------------------------------------------------|
B|---------------------------------------------------------------------------|
G|---------------------------------------------------------------------------|
D|---------------------------------------------------------------------------| 
A|---------------------------------------------------------------------------|
D|---4-4--2h4-4--2h4-4--0-7-9-10---4-4--2h4-4--2h4-4-----0-9-0-7-0-10--------|
  
  1:57 / 2:14

e|---------0-0---------------------------------------------------------------|
B|---------0-0---------------------------------------------------------------|
G|---4-2-5-2-2---------------------------------------------------------------|
D|---4-2-5-2-2---------------------------------------------------------------|
A|---2-0-3-0-0---------------------------------------------------------------|
D|--------------4-4-4-4-4-2-2-4-4-4-4-4-4-4-4-4------------------------------|

e|-----0---0-0-----------------------------------------0----0----------------|
B|-----0---0-0-----------------------------------------0----0----------------|
G|---4-2-5-2-2-------------------------------------4-5-2----0----------------|
D|---4-2-5-2-2-------------------------------------4-5-2--2------------------|
A|---2-0-3-0-0-------------------------------------2-3-0--2------------------|
D|--------------4-4-4-4-4-2-2-4-4-4-4-4-4-4-4-4-----------2------------------|

  2:15 / 2:39

e|---------------------------------------------------------------------------|
B|---------------------------------------------------------------------------|
G|------6-6-6-6-( x 8)----4-4-4-4-( x 4)--/4-4-4-4-( x 2)--2-2-2-2-( x 2)----|
D|---------------------------------------------------------------------------|
A|---------------------------------------------------------------------------|
D|---------------------------------------------------------------------------|
  PM|   . . . .           . . . .
        
e|---------------------------------------------------------------------------|
B|-------------------12---10----10---7---------------------------------------|
G|----------9----11----11---11-----9---6-------------------------------------|
D|----4--4/7--7/9-------------------------4----------------------------------|
A|-----4----------------------------------4----------------------------------|
D|----------------------------------------4----------------------------------|

  2:58 / 3:22

e|---------------------------------------------------------------------------|
B|---------------------------------------------------------------------------|
G|---------------------------------------------------------------------------|
D|---------------------------------------------------------------------------|
A|---------------------------------------------------------------------------|
D|----4-4-2-4-4-4-2-4-4-4-2-4-4-4-4b-4b-4-4-2-4-4-4-2-4-4-4-2-4-4-4-0-7-9-10-|

e|---------------------------------------------------------------------------|
B|---------------------------------------------------------------------------|
G|---------------------------------------------------------------------------|
D|---------------------------------------------------------------------------|
A|---------------------------------------------------------------------------|
D|----4-4-2-4-4-4-2-4-4-4-2-4-4-4-4b-4b-4-4-2-4-4-4-2-4-4-4-2-4-4-4-0-9-7-10-|

e|---------------------------------------------------------------------------|
B|---------------------------------------------------------------------------|
G|---------------------------------------------------------------------------|
D|---------------------------------------------------------------------------|
A|---------------------------------------------------------------------------|
D|----4-4-2-4-4-4-2-4-4-4-2-4-4-4-4b-4b-4-4-2-4-4-4-2-4-4-4-2-4-4-4-4b-4b----|

e|-----------------------------------------------------------------------------------|
B|------------------------------------------------------------------13--13--13--13---|
G|------------------------------------------------------------------16b-16b-16b-16b--|
D|-----------------------------------------------------------------------------------|
A|-----------------------------------------------------------------------------------|
D|----4-4-2-4-4-4-2-4-4-4-2-4-4-4-4b-4b-4-4-2-4-4-4-2-4-4-4-2-4-4-4------------------|

  3:23 / 3:49

e|---------------------------------------------------------------------------|
B|---------------------------------------------------------------------------|
G|-----------------------2-4-5-----------------------------------------------|
D|---4-4--2h4-4--2h4-4---2-4-5-----4-4--2h4-4--2h4-4-------------------------|   x 4
A|---4-4--2h4-4--2h4-4-0-0-2-3-----4-4--2h4-4--2h4-4-------------------------|
D|---4-4--2h4-4--2h4-4-------------4-4--2h4-4--2h4-4--0-9-0-7-0-10-----------|

thats it, dont forget to rate and comment!

************************************

| /   slide up
| \   slide down
| h   hammer-on
| p   pull-off
| ~   vibrato
| +   harmonic
| x   Mute note
| b   Bend
| pb  Pre-bend
| br  Bend release
| pbr Pre-bend release
| brb Bend release bend

************************************
Suggest correction
Give kudos to tab author, rate the tab!
1 2 3 4 5
comments
print report bad tab
guest
You may want to rate the tab now too:
select rating
Wanna post a correction for this tab? Suggest correction