Oops, an error
Loading. Please wait.

Fed To The Ocean Tab

758 views 3 this week
no commentswrite comment
1 2 3 4 5
please rate
add to favorites
launch autoscroll
font size
0
reset
how to read this tab
guitar tuner
Tab Pro tools
  • play this tab
  • loop segment
  • change instrument
  • show fretboard
  • metronome
Autoscroll
slow
fast
+/-
esc
set tempo
stop
Contributor
Tuning
D A D G B E
-------------------------------------------------------------------------------
                 Fed To The Ocean - The Ghost Of A Thousand
-------------------------------------------------------------------------------
Tabbed by: Nick Adams
Email: na277@st-andrews.ac.uk
Album: New Hopes, New Demonstrations

It's all pretty much here, but if you listen really closely (and i mean
really f*ing closely) at about 2:03 onwards there's a solo in the background.
The solo/outro at the end works for this if you fancied playing it, but to be
honest I cam only really hear the first few bars of it, ah well - Fed to
the ocean...

Tuning: Drop D

Intro
e|----------0--|--------0--|----------------------0------------------|
B|----------5--|--------5--|------0---------0-----5---5--------------|
G|--2---3---3--|--2--3--3--|--2-2---2---3-3---3---3-3---3------------|
D|--2---2---5--|--2--2--5--|--2---------2---------5-------3-5-3------|
A|--0---0------|--0--0-----|--0---------0-----------------------5----|
D|-------------|-----------|-----------------------------------------|

e|--------------------0-------|
B|------0-------0-----5---5---|
G|--2-2---2---3---3---3-3-----|
D|--2---------2-------5-------|
A|--0---------0---------------|
D|----------------------------|


e|--------------------|-------------------|---------------------|
B|--------------------|-------------------|---------------------|
G|--2-2-2--5-x--------|-2-2-2--5-x--7-7-7-|-2-2-2--5-x----------|
D|--2-2-2--5-x--5-5-5-|-2-2-2--5-x--7-7-7-|-2-2-2--5-x--5-5-5---|
A|--0-0-0--3-x--5-5-5-|-0-0-0--3-x--5-5-5-|-0-0-0--3-x--5-5-5---|
D|--------------5-5-5-|-------------------|-------------5-5-5---|

e|--------------------|
B|--------------------|
G|--------------5--7--|
D|-3-3-3-3-3-3--5--5--|
A|-3-3-3-3-3-3--3--5--|
D|-3-3-3-3-3-3--------|

e|--------------------|-------------------|---------------------|
B|--------------------|-------------------|---------------------|
G|--2-2-2--5-x--------|-2-2-2--5-x--7-7-7-|-2-2-2--5-x----------|
D|--2-2-2--5-x--5-5-5-|-2-2-2--5-x--7-7-7-|-2-2-2--5-x--5-5-5---|
A|--0-0-0--3-x--5-5-5-|-0-0-0--3-x--5-5-5-|-0-0-0--3-x--5-5-5---|
D|--------------5-5-5-|-------------------|-------------5-5-5---|

e|-------------------------------------|
B|-------------------------------------|
G|-------------------------------5--7--|
D|-3-3-3-3-3-3-3-3--5-5-5-5-5-x--5--7--|
A|-3-3-3-3-3-3-3-3--5-5-5-5-5-x--3--5--|
D|-3-3-3-3-3-3-3-3--5-5-5-5-5-x--------|

Verse            (x4)
e||-----------0---||
B||o----------5--o||
G||---2---3---3---||
D||---2---2---5---||
A||o--0---0------o||
D||---------------||

Chorus
e|---------------------------------------------------------------------------|
B|---------------------------------------------------------------------------|
G|--------------------------------------2-2-2-2-2-2-2-2--5-5-5-x---7-7-7-7---|
D|--3-3-3-3-3-3-3-3---5-5-5-5-5-5-5-5---2-2-2-2-2-2-2-2--5-5-5-x---7-7-7-7---|
A|--3-3-3-3-3-3-3-3---5-5-5-5-5-5-5-5---0-0-0-0-0-0-0-0--3-3-3-x---5-5-5-5---|
D|--3-3-3-3-3-3-3-3---5-5-5-5-5-5-5-5----------------------------------------|

e|-----------------------------------------------------------------------|
B|-----------------------------------------------------------------------|
G|-----------------------------------------------------------------------|
D|--3-3-3-3-3-3-3-3---5-5-5-5-5-5-5-5---7-7-7-7-7-7-7-7-7-7-7-7-7-7-7-7--|
A|--3-3-3-3-3-3-3-3---5-5-5-5-5-5-5-5---7-7-7-7-7-7-7-7-7-7-7-7-7-7-7-7--|
D|--3-3-3-3-3-3-3-3---5-5-5-5-5-5-5-5---7-7-7-7-7-7-7-7-7-7-7-7-7-7-7-7--|

e|---------------------------------------------------------------------------|
B|---------------------------------------------------------------------------|
G|--------------------------------------2-2-2-2-2-2-2-2--5-5-5-x---7-7-7-7---|
D|--3-3-3-3-3-3-3-3---5-5-5-5-5-5-5-5---2-2-2-2-2-2-2-2--5-5-5-x---7-7-7-7---|
A|--3-3-3-3-3-3-3-3---5-5-5-5-5-5-5-5---0-0-0-0-0-0-0-0--3-3-3-x---5-5-5-5---|
D|--3-3-3-3-3-3-3-3---5-5-5-5-5-5-5-5----------------------------------------|


e|----------------------------------------------------------------------|
B|----------------------------------------------------------------------|
G|--------------------------------------5-5-5-5-5-5-5-5--5-x--5-x--5-7--|
D|--3-3-3-3-3-3-3-3---0-0-0-0-0-0-0-0---5-5-5-5-5-5-5-5--5-x--5-x--5-7--|
A|--3-3-3-3-3-3-3-3---0-0-0-0-0-0-0-0---5-5-5-5-5-5-5-5--3-x--3-x--3-5--|
D|--3-3-3-3-3-3-3-3---0-0-0-0-0-0-0-0---5-5-5-5-5-5-5-5-----------------|

Post Chorus
e|----------0-------|----------0-|
B|------------0-----|----------0-|
G|------2-------2---|------2-----|
D|----2---2-------2-|----2---2---|
A|--0---------------|--0---------|
D|------------------|------------|

Then play the verse again (x2 instead of x4), followed by...
Verse riff 2 (lots of let-ring)
e|-----------------------------------------------|
B|-----------------------------------------------|
G|--14-------------------/14-12------------------|
D|------12-14-------------------14-12-14/15\14---|
A|------------12--12/15--------------------------|
D|-----------------------------------------------|

e|-----------------------|
B|-----------------------|
G|--14-------------------|
D|------12-14------------|
A|------------12--12/15--|
D|-----------------------|

Then play the chorus, and instead of the post chorus you can crank in
a cheeky pick slide.
 
 
e||--------------------|-------------------|--------------------|
B||o-------------------|-------------------|--------------------|
G||--2-2-2--5-x--------|-2-2-2--5-x--7-7-7-|-2-2-2--5-x---------|
D||--2-2-2--5-x--5-5-5-|-2-2-2--5-x--7-7-7-|-2-2-2--5-x--5-5-5--|
A||o-0-0-0--3-x--5-5-5-|-0-0-0--3-x--5-5-5-|-0-0-0--3-x--5-5-5--|
D||--------------5-5-5-|-------------------|-------------5-5-5--|
                      (x3)
e|--------------------||
B|-------------------o||
G|--------------5--7--||
D|-3-3-3-3-3-3--5--5--||
A|-3-3-3-3-3-3--3--5-o||
D|-3-3-3-3-3-3--------||

e|--------------------|-------------------|---------------------|
B|--------------------|-------------------|---------------------|
G|--2-2-2--5-x--------|-2-2-2--5-x--7-7-7-|-2-2-2--5-x----------|
D|--2-2-2--5-x--5-5-5-|-2-2-2--5-x--7-7-7-|-2-2-2--5-x--5-5-5---|
A|--0-0-0--3-x--5-5-5-|-0-0-0--3-x--5-5-5-|-0-0-0--3-x--5-5-5---|
D|--------------5-5-5-|-------------------|-------------5-5-5---|

e|--------------|
B|--------------|
G|--------------|
D|-3-3-3-3-3-3--|
A|-3-3-3-3-3-3--|
D|-3-3-3-3-3-3--|

Then back to the chorus (x1.5), with a solo cutting in on the 2nd play through
Solo/outro                                        (x12)
e|--------------15/17----15----15/17--||--15-12-10--||--/17-15-------15-17---|
B|-15b-15b-15b--------17----17--------||o----------o||---------17-15---------|
G|------------------------------------||------------||-----------------------|
D|------------------------------------||------------||-----------------------|
A|------------------------------------||o----------o||-----------------------|
D|------------------------------------||------------||-----------------------|

e|--17~~---------------|------------------|
B|--------17~~---12~~~-|------------------|
G|---------------------|--5-x--5-x--5-7---|
D|---------------------|--5-x--5-x--5-7---|
A|---------------------|--3-x--3-x--3-5---|
D|---------------------|------------------|


************************************

| /   slide up
| \   slide down
| h   hammer-on
| p   pull-off
| ~   vibrato
| +   harmonic
| x   Mute note
| b   Bend
| pb  Pre-bend
| br  Bend release
| pbr Pre-bend release
| brb Bend release bend

************************************

comments
We did not receive enough feedback on this tab! Please rate:
print report bad tab
1 2 3 4 5
I want to post or [tab]
guest
You may want to rate the tab now too:
select rating
Please do not post tabs as comments. Select "correction" instead!