Oops, an error
Loading. Please wait.

Nobody Likes A Hero Tab

346 views 3 this week
no commentswrite comment
1 2 3 4 5
accurate
x 1
add to favorites
launch autoscroll
font size
0
reset
how to read this tab
guitar tuner
Tab Pro tools
  • play this tab
  • loop segment
  • change instrument
  • show fretboard
  • metronome
Autoscroll
slow
fast
+/-
esc
set tempo
stop
Contributor
-------------------------------------------------------------------------------
                                Nobody Likes A Hero - The Ghost Of A Thousand
-------------------------------------------------------------------------------
Tabbed by: Nick Adams
Email: na277@st-andrews.ac.uk
Album: New Hopes, New Demonstrations

The second riff is just a mix of guitar 1&2, but it's easy enough to play;
and towards the end there's the piano piece tabbed out because... well
who doesn't love pretending to be a piano? I'd have merged the two
instruments but there didn't seem to be any point.

Tuning: Drop D

Intro                       X2
e||-------------------------||
B||o---3-----3-----4-----1-o||
G||--0-----0-----0-----0----||
D||-------------------------||
A||o-----------------------o||
D||-------------------------||

                            X2
e||-------------------------||
B||o---3-----3-----4-----1-o||
G||--0-----0-----0-----0----||
D||--5-----------3-----1----||
A||o-5-----------3-----1---o||
D||--5-----------3-----1----||

Verse                                                                             X4
e||-------------------|--------------------|-------------------------------------||
B||o--8-8-8-8-8-8-8-8-|-8-8-8-8-8-10-10-10-|---8---8---8-----10---10-10-10-10-10o||
G||-------------------|--------------------|-7---7---7-----7----7----------------||
D||-------------------|--------------------|-------------------------------------||
A||o------------------|--------------------|------------------------------------o||
D||-------------------|--------------------|-------------------------------------||

                                         The bend here is progressive
e|---------------|--------------------|-------------------|------------------|
B|-8-8-8-8-8-8-8-|-8-8-8-8-8-10-10-10-|-------------------|------------------|
G|---------------|--------------------|--7b-7-7-7-7-7-7-7-|-7-7-7-7-7-7-7-7--|
D|---------------|--------------------|-------------------|------------------|
A|---------------|--------------------|-------------------|------------------|
D|---------------|--------------------|-------------------|------------------|

Chorus                                     x3
e||----------------------|-----------------||
B||o---------------------|----------------o||
G||----------------------|-----------------||
D||--3--5-5-3--8-7--3-5--|--3-5--8-7---3---||
A||o-3--5-5-3--8-7--3-5--|--3-5--8-7---3--o||
D||--3--5-5-3--8-7--3-5--|--3-5--8-7---3---||

e|-----------------------------------------|
B|-----------------------------------------|
G|-----------------------------------------|
D|--1-1-1-1-1-1-1-1---10-10-10-10--3-3-3-3-|
A|--1-1-1-1-1-1-1-1---10-10-10-10--3-3-3-3-|
D|--1-1-1-1-1-1-1-1---10-10-10-10--3-3-3-3-|



e|-------------------------------|----------------------------|
B|-------------------------------|----------------------------|
G|-------------------------------|----------------------------|
D|---------------------3h5p3p0---|----------------------------|
A|---------3-3-3--5-5----------1-|---------3-3-3--5-5---1--0--|
D|--5-5-5------------------------|--5-5-5---------------------|

e|-------------------------------|-------------------------|
B|-------------------------------|-------------------------|
G|-------------------------------|-------------------------|
D|---------------------3h5p3p0---|----------------------1--|
A|---------3-3-3--5-5----------1-|---------3-3-3--5-5---1--|
D|--5-5-5------------------------|--5-5-5------------------|

e|-------------------------------|-------------------------|
B|-------------------------------|-------------------------|
G|-------------------------------|----------------------5~-|
D|---------------------3h5p3p0---|-------------------------|
A|---------3-3-3--5-5----------1-|---------3-3-3--5-5------|
D|--5-5-5------------------------|--5-5-5------------------|

e|-------------------------------|-------------------------|
B|-------------------------------|-------------------------|
G|-------------------------------|-------------------------|
D|---------------------3h5p3p0---|----------------------1--|
A|---------3-3-3--5-5----------1-|---------3-3-3--5-5---1--|
D|--5-5-5------------------------|--5-5-5------------------|

e|------------------------------------|
B|------------------------------------|
G|------------------------------------|
D|--3-3-3-3-3-3-3-3--1-1-1-1-1-1-1-1--|
A|--3-3-3-3-3-3-3-3--1-1-1-1-1-1-1-1--|
D|--3-3-3-3-3-3-3-3--1-1-1-1-1-1-1-1--|

There's a few things going on here (1:43-1:48)... and this is one of them:
e|----------------------|-----------------|
B|----------------------|-----------------|
G|----------------------|-----------------|
D|--3--5-5-3--8-7--3-5--|--3-5--8-7--5-3--|
A|--3--5-5-3--8-7--3-5--|--3-5--8-7--5-3--|
D|--3--5-5-3--8-7--3-5--|--3-5--8-7--5-3--|


Chorus                                     X2
e||----------------------|-----------------||
B||o---------------------|----------------o||
G||----------------------|-----------------||
D||--3--5-5-3--8-7--3-5--|--3-5--8-7---3---||
A||o-3--5-5-3--8-7--3-5--|--3-5--8-7---3--o||
D||--3--5-5-3--8-7--3-5--|--3-5--8-7---3---||

                                             X3
e||-------------------------------------------||
B||o-----------------------------------------o||
G||-------------------------------------------||
D||---1-1-1-1-1-1-1-1---10-10-10-10--3-3-3-3--||
A||o--1-1-1-1-1-1-1-1---10-10-10-10--3-3-3-3-o||
D||---1-1-1-1-1-1-1-1---10-10-10-10--3-3-3-3--||


Outro
e|-------------------------|
B|----3-----3-----4-----1--|
G|--0-----0-----0-----0----|
D|-------------------------|
A|-------------------------|
D|-------------------------|

                                                                                  X4
e||-------------------|--------------------|-------------------------------------||
B||o--8-8-8-8-8-8-8-8-|-8-8-8-8-8-10-10-10-|---8---8---8-----10---10-10-10-10-10o||
G||-------------------|--------------------|-7---7---7-----7----7----------------||
D||-------------------|--------------------|-------------------------------------||
A||o------------------|--------------------|------------------------------------o||
D||-------------------|--------------------|-------------------------------------||

Piano
After the guitar stops playing this riff (an octave lower) the piano plays
it over the top of the rest of the outro.
                                  X4
E||--------------------------------||
B||o----15-----15------16------13-o||
G||--12-----12------12------12-----||
D||--------------------------------||
A||o------------------------------o||
D||--------------------------------||

e|------------------------------|
B|-----15-----15-----15-----15--|
G|--12-----12-----12-----12-----|
D|------------------------------|
A|------------------------------|
D|------------------------------|



************************************

| /   slide up
| \   slide down
| h   hammer-on
| p   pull-off
| ~   vibrato
| +   harmonic
| x   Mute note
| b   Bend
| pb  Pre-bend
| br  Bend release
| pbr Pre-bend release
| brb Bend release bend

************************************

comments
We did not receive enough feedback on this tab! Please rate:
print report bad tab
1 2 3 4 5
I want to post or [tab]
guest
You may want to rate the tab now too:
select rating
Please do not post tabs as comments. Select "correction" instead!