Oops, an error
Loading. Please wait.

One For The Road Tab

168 views 1 this week
no commentswrite comment
1 2 3 4 5
please rate
add to favorites
launch autoscroll
font size
0
reset
how to read this tab
guitar tuner
Autoscroll
slow
fast
+/-
esc
set tempo
stop
Help us to improve Ultimate-Guitar.com Take our survey!
×
Author
Tuning
D A D G B E
-------------------------------------------------------------------------------
                                        One For The Road - The Ghost of a Thousand
-------------------------------------------------------------------------------
Tabbed by: Nick Adams

'Ghost unit coming for ya'... Pretty much sums it up, enjoy.


Tuning: Drop D (DADGBe)

Intro               x2
e||------------------||
B||o----------------o||
G||----7-(let-ring)--||
D||----7--7----------||
A||o---5--5-5-------o||
D||-----------0------||

Verse riff a                                              x2
e|------------------------------------||--------------------------------------||
B|------------------------------------||o------------------------------------o||
G|--7----0----------------------------||-------0------------------------------||
D|--7------0-6p0-0---3p0-0----3--5--3-||-----0---0-6p0-0---3p0-0----3--5--3---||
A|--5--5-----------0-------0--3--5--3-||o--0-------------0-------0--3--5--3--o||
D|----------------------------3--5--3-||---0------------------------3--5--3---||

e|-----------------------------------|
B|-----------------------------------|
G|------0----------------------------|
D|----0---0-6p0-0-----x-x-x-x-x-x-x--|
A|--0-------------0---x-x-x-x-x-x-x--|
D|--0-----------------x-x-x-x-x-x-x--|

Repeat Verse riff a

Verse riff b     (x3)
e||---------------||---------------------------|
B||o-------------o||---------------------------|
G||---------------||---------------7-7-7-(5)---|
D||---3--5--------||--3--5-5-5-5---7-7-7-(5)---|
A||o--3--5-(x15)-o||--3--5-5-5-5---------------|
D||---3--5--------||--3--5-5-5-5---------------|

Play Verse riff a (x1) and then verse riff b (x1)

Chorus
e|--------------------------------------------------------|
B|--------------------------------------------------------|
G|--7--7-7-7-7-------------------------------------5-5-5--|
D|--5--5-5-5-5---6--6-6-6-6---3--3-3-3-3---5--5-5--5-5-5--|
A|--5--5-5-5-5---6--6-6-6-6---3--3-3-3-3---5--5-5---------|
D|---------------6--6-6-6-6---3--3-3-3-3---5--5-5---------|

e|--------------------------------------------------------|
B|--------------------------------------------------------|
G|--7--7-7-7-7--------------------------------------------|
D|--5--5-5-5-5---6--6-6-6-6---3--3-3-3-3---5-x-3p0--------|
A|--5--5-5-5-5---6--6-6-6-6---3--3-3-3-3---5-x-----3p0-5--|
D|---------------6--6-6-6-6---3--3-3-3-3---5-----------5--|

e|-------------------------------------------------------|
B|-------------------------------------------------------|
G|--7--7-7-7-7-------------------------------------5-5-5-|
D|--5--5-5-5-5---6--6-6-6-6---3--3-3-3-3---5--5-5--5-5-5-|
A|--5--5-5-5-5---6--6-6-6-6---3--3-3-3-3---5--5-5--------|
D|---------------6--6-6-6-6---3--3-3-3-3---5--5-5--------|

e|-------------------------------------------------------------|
B|-------------------------------------------------------------|
G|--7--7-7-7-7-------------------------------------------------|
D|--5--5-5-5-5---6--6-6-6-6---3--3-3-3-3---5----6p0-0---3p0----|
A|--5--5-5-5-5---6--6-6-6-6---3--3-3-3-3---5-5--------0-----0--|
D|---------------6--6-6-6-6---3--3-3-3-3---5-5-----------------|

Bridge
e|-------------------------------------------------------|
B|------------------------9----------8-------------------|
G|--7-----------7---------7-7--------7-7-----------------|
D|--0--0--------7-7-------x-x-x------x-x-x-----x-x--x-x--|
A|--5--5-5------5-5-5-----5---5------5---5-----x-x--x-x--|
D|--0------0----------0---------0----------0---x-x--x-x--|

e|------------------------------------------------------------------------|
B|------------------------------------------------------------------------|
G|--6--------------7--------------6-------------7-------------------------|
D|--7---x-x--x-x--(0)--x-x--x-x---7--x-x--x-x---0--x-x--x-x--x--x-x--x-x--|
A|--5---x-x--x-x---5---x-x--x-x---5--x-x--x-x---5--x-x--x-x--x--x-x--x-x--|
D|--0---x-x--x-x---0---x-x--x-x---0--x-x--x-x---0--x-x--x-x--x--x-x--x-x--|

e|-----------------------------------------------------|
B|-----------------------------------------------------|
G|--7--------------------------------------------------|
D|--0----------(then play around with distortion)------|
A|--5--------------------(and follow with pick slide)--|
D|-----------------------------------------------------|

Play the chorus twice, and on the last section of the second play:
Outro
e|--------------------------------------------------------|
B|--------------------------------------------------------|
G|--7--7-7-7-7------------------------------------7\------|
D|--5--5-5-5-5---6--6-6-6-6---3--3-3-3-3---5-6-0--7\------|
A|--5--5-5-5-5---6--6-6-6-6---3--3-3-3-3---5-6-0--5-------|
D|---------------6--6-6-6-6---3--3-3-3-3---5-6-0--0-------|


************************************

| /   slide up
| \   slide down
| h   hammer-on
| p   pull-off
| ~   vibrato
| +   harmonic
| x   Mute note
| b   Bend
| pb  Pre-bend
| br  Bend release
| pbr Pre-bend release
| brb Bend release bend

************************************

Suggest correction new What's this?
You can suggest a correction to this tab. Community and Mods will review your correction and vote to approve or reject it.
comments
We did not receive enough feedback on this tab! Please rate:
print report bad tab
1 2 3 4 5
guest
You may want to rate the tab now too:
select rating
Please do not post tabs as comments. Select "correction" instead!