Oops, an error
Loading. Please wait.

Running On Empty Tab

version 1
version 1

Whole song

Interactive

748 views 3 this week
no commentswrite comment
1 2 3 4 5
please rate
add to favorites
launch autoscroll
font size
0
reset
how to read this tab
guitar tuner
Tab Pro tools
  • play this tab
  • loop segment
  • change instrument
  • show fretboard
  • metronome
Autoscroll
slow
fast
+/-
esc
set tempo
stop
Contributor
Tuning
D A D G B E
-----------------------------------------------------------------------------
                  Running On Empty -The Ghost of A Thousand
-----------------------------------------------------------------------------

Tabbed by: Nick Adams
Email: na277@st-andrews.ac.uk

It sounds like it works... When I tabbed this out to begin with I'd
incorporated some of the bass parts into the riffs - edited them out but
some might remain. 

Tuning: Drop D

Intro           Verse                                    (x3)
e|-----------||--------------------------------------------||
B|-----------||o------------------------------------------o||
G|-7-9-(7)-9-||---9-------7-7-7----------------7-9-(7)-9---||
D|-7-9-(7)-9-||---9-(x16)-7-7-7--5-5-5--7-7-7--7-9-(7)-9---||
A|-5-7-(5)-7-||o--7-------5-5-5--5-5-5--7-7-7--5-7-(5)-7--o||
D|-----------||------------------5-5-5--7-7-7--------------||

e|--------------------------------------------------------------|
B|--------------------------------------------------------------|
G|--9-------7-7-7-----------------------------------------------|
D|--9-(x16)-7-7-7--5-5-5--7-------5-7-5--2----------------------|
A|--7-------5-5-5--5-5-5--7-(x12)-5-7-5--2-(x16)----------------|
D|-----------------5-5-5--7-------5-7-5--2----------------------|


Chorus                        (x2)
e||----------------------------||--------------------------------|
B||o--------------------------o||--------------------------------|
G||---7------------------------||--7--------------7--------------|
D||---7-(x8)-7-------2---------||--7-(x8)-7-------7-(x8)--2------|
A||o--5------7-(x8)--2-(x16)--o||--5------7-(x8)--5-------2-(x8)-|
D||----------7-------2---------||---------7---------------2------|

                                   Post Chorus
e|--------------------------------|-------------------------------|
B|--------------------------------|-------------------------------|
G|-7------------------------------|--2-2-x---------2-2-2----------|
D|-7-(x8)-7-7-7-7--5-7-5--2-------|--0-0-x-2-------0-0-0----------|
A|-5------7-7-7-7--5-7-5--2-(x16)-|--0-0-x-2-(x8)--0-0-0----------|
D|--------7-7-7-7--5-7-5--2-------|--------2----------------------|


Bridge                                   (x2)
e||---------------------------------------||
B||o-------------------------------------o||
G||--x-x-9--x-x-9--x-x-9------------------||
D||--x-x-9--x-x-9--x-x-9---------7--------||
A||o-x-x-7--x-x-7--x-x-7---5-5h7---7-(5)-o||
D||---------------------------------------||


Solo
e|--------------------------------------------------10-----------------|
B|----------------------------------------------/12----12-10h12p10-----|
G|-/12-9----9~--9------------------------------------------------------|
D|-------12-------12-9~---/9-9-9-9-9-9-7---------------------------14--|
A|---------------------------------------10-7--------------------------|
D|---------------------------------------------------------------------|
 

e|----------------------------------------12-----------12-----|
B|-------------------------------------12----15-12------------|
G|-------12-------------------11-12-14-------------14---------|
D|-12-14----14----------12-14---------------------------------|
A|----------------12-14---------------------------------------|
D|------------------------------------------------------------|


Chorus                        (x2)
e||----------------------------||--------------------------------|
B||o--------------------------o||--------------------------------|
G||---7------------------------||--7--------------7--------------|
D||---7-(x8)-7-------2---------||--7-(x8)-7-------7-(x8)--2------|
A||o--5------7-(x8)--2-(x16)--o||--5------7-(x8)--5-------2-(x8)-|
D||----------7-------2---------||---------7---------------2------|


                                   Post Chorus
e|--------------------------------|-------------------------------|
B|--------------------------------|-------------------------------|
G|-7------------------------------|--2-2-x---------2-2-2----------|
D|-7-(x8)-7-7-7-7--5-7-5--2-------|--0-0-x-2-------0-0-0----------|
A|-5------7-7-7-7--5-7-5--2-(x16)-|--0-0-x-2-(x8)--0-0-0----------|
D|--------7-7-7-7--5-7-5--2-------|--------2----------------------|


Interlude
e|---------------------------------------|
B|-12-------------------------10---------|
G|----12----------------12-------12-11---|
D|-------14----------12----12------------|
A|-------------10h12---------------------|
D|---------------------------------------|

e|---------------------------------------|
B|-12-------------------------10---------|
G|----12----------------12-------12-11---|
D|-------14----------12----12------------|
A|-------------10h12---------------------|
D|---------------------------------------|

e|---------------------------------------|
B|-12-------------------------10---------|
G|----12----------------12-------9-------|
D|-------14----------12----12------12----|
A|-------------10h12---------------------|
D|---------------------------------------|

e|---------------------------------------|
B|-12-------------------------10~--------|
G|----12----------------12---------------|
D|-------14----------12----12------------|
A|-------------10h12---------------------|
D|---------------------------------------|

Chorus                         x2
e||----------------------------||--------------------------------|
B||o--------------------------o||--------------------------------|
G||---7------------------------||--7--------------7--------------|
D||---7-(x8)-7-------2---------||--7-(x8)-7-------7-(x8)--2------|
A||o--5------7-(x8)--2-(x16)--o||--5------7-(x8)--5-------2-(x8)-|
D||----------7-------2---------||---------7---------------2------|

					Post-Chorus				     
e|--------------------------------|-------------------------------|
B|--------------------------------|-------------------------------|
G|-7------------------------------|--7-------------7--------------|
D|-7-(x8)-7-7-7-7--5-7-5--2-------|--7-(x8)-7------7-(x8)-2-------|
A|-5------7-7-7-7--5-7-5--2-(x16)-|--5------7-(x8)-5------2-(x8)--|
D|--------7-7-7-7--5-7-5--2-------|---------7-------------2-------|

				     
e|------------|
B|------------|
G|-7----------|
D|-7-(x32)----|
A|-5----------|
D|------------|

Outro                                     x4
e||---------------------------------------||
B||o-------------------------------------o||
G||--x-x-9--x-x-9--x-x-9------------------||
D||--x-x-9--x-x-9--x-x-9--------0---------||
A||o-x-x-7--x-x-7--x-x-7-----------------o||
D||-----------------------0-0h2---2-------||
	
                                 x3
e||------------------------------||
B||o----------------------------o||
G||------------------------------||
D||--------------------0---------||
A||o----------------------------o||
D||--2-0h2-2-0h2-2-0h2---2-0-----||

e|-------------------|-----------------------------|
B|-------------------|-----------------------------|
G|-------------------|-7-----7---------------------|
D|-------------------|-7--7--5--2~-----2-----------|
A|-------------------|-5--7--5--2~-----2-----------|
D|---2-0h2-2-0h2-2~--|----7-----2~-----2-----------|
                                       o

************************************

| /   slide up
| \   slide down
| h   hammer-on
| p   pull-off
| ~   vibrato
| +   harmonic
| x   Mute note
| b   Bend
| pb  Pre-bend
| br  Bend release
| pbr Pre-bend release
| brb Bend release bend

************************************

comments
We did not receive enough feedback on this tab! Please rate:
print report bad tab
1 2 3 4 5
I want to post or [tab]
guest
You may want to rate the tab now too:
select rating
Please do not post tabs as comments. Select "correction" instead!