Oops, an error
Loading. Please wait.

Call Me Doctor tab

10 views 1 this week
no commentswrite comment
1 2 3 4 5
3 more votes to show rating
add to favorites
×
Save as Personal and add changes to this tab that will be seen only by you. Learn more ›
×
You can save this tab as Personal to edit and correct it or add notes. All changes will be seen only by you. Learn more »
launch autoscroll
font size
0
reset
how to read this tab
guitar tuner
edit
Autoscroll
slow
fast
+/-
esc
set tempo
stop
D#|---------------------------------------------------------------------------|
 B|----4---4---4---4---4---4---4---4---4---4-----------4---4------------------|
 G|---------------------------------------------------------------------------|
 D|---------------------------------------------------------------------------|
 A|--6---6---6---6---6---6---6---6---6---6---6-5-3----------------------------| 2x
 E|------------------------------------------------6-4---3--------------------|
     i'm in a bad way i call my doctor says he'll be right over
     he brings a good book some cigarettes and tells me that I'm fine

D#|---------------------------------------------------------------------------|
 B|----4---4---4---4---4---4---4---4---4---4---4---4-------------------4---4--|
 G|----------------------------------------------------5---5---5---5----------|
 D|---------------------------------------------------------------------------|
 A|--6---6---6---6---6---6---6---6--------------------------------------------|
 E|----------------------------------4---4---3---3---6---6---4---4---4---4----|
                                     it's all inside your head       there's

D#|---------------------------------------------------------------------------|
 B|----4---4---8---8---6---6---4---4---4---4-------------------4---4---4---4--|
 G|--------------------------------------------5---5---5---5------------------|
 D|---------------------------------------------------------------------------|
 A|---------------------------------------------------------------------------|
 E|--3---3---8---8---6---6---4---4---3---3---6---6---4---4---4---4---4---4----| 
     nothing really there    no cancer or pneumonia  Hey I've seen a whole lot I'll say

D#|--------------------------------------------------0-0-0---------0-0-0------|
 B|----6---6---6---6---4---4-----------4---4---4---4-3-1-----4---4-3-1--------|
 G|------------------------------------------------------3-------------3------|
 D|---------------------------------------------------------------------------|
 A|------------------6---6---6-5-3-----------6---6----------------------------|
 E|--6---6---6---6-----------------6-4---3-----------------4---4--------------|
                     Just read the good book drink some coffee soon you'll be just fine

D#|--------0-0-0---------0-0-0--------|
 B|----4---4-3-1-----4---4-3-1--------|
 G|--------------3-------------3------|
 D|-----------------------------------|
 A|--6---6----------------------------| 3x
 E|----------------4---4--------------|
Suggest correction
Creating personal tab
Creating personal tab
You can edit any tab online and save it as your Personal.

You can edit, replace or remove any tab part or add personal notes – all changes will be seen only by you.

Personal tabs can be accessed anytime from any device, even offline.
Learn more »
Give kudos to tab author, rate the tab!
1 2 3 4 5
comments
print report bad tab
guest
You may want to rate the tab now too:
select rating
Wanna post a correction for this tab? Suggest correction