Oops, an error
Loading. Please wait.

Straight Down chords

34 views 3 this week
no commentswrite comment
1 2 3 4 5
3 more votes to show rating
add to favorites
×
Save as Personal and add changes to this tab that will be seen only by you. Learn more ›
×
You can save this tab as Personal to edit and correct it or add notes. All changes will be seen only by you. Learn more »
launch autoscroll
font size
0
reset
transpose
0
reset
display chords
guitar tuner
edit
Autoscroll
slow
fast
+/-
esc
set tempo
stop
Strumming
There is no strumming pattern for this song yet. and get +5 IQ
Am                     F
One time that lasts forever
C                      F
One time that's deep inside
        Am           F  C       F
I wanna shake all over again
Am                      F
One time is better than no time
C                          F
I could lose for doing the favor
      Am           F C
Wanna shake all over again

e|---------------------------------------------------------------------------|
B|---------------------------------------------------------------------------|
G|---------------------------------------------------------------------------|
D|------10------10------5-------5--------------------------------------------|
A|--8-8---8-7-7----7-3-3--3-2-2---2------------------------------------------| 3x
E|---------------------------------------------------------------------------|
   You go straight down what's the matter, don't you 
   trust me? I only want it on the
   way down In a bad way
F               G
Is the backseat all mine?

Am F 4x

Am                      F
I wanna live but not be found
C                            F
I want this one and that one too
        Am           F  C       F
I wanna shake all over again
Am                      F
One time is better than no time
C                          F
I can't lose for doing the favor
      Am           F C
Wanna shake all over again


e|---------------------------------------------------------------------------|
B|---------------------------------------------------------------------------|
G|---------------------------------------------------------------------------|
D|------10------10------5-------5--------------------------------------------|
A|--8-8---8-7-7----7-3-3--3-2-2---2------------------------------------------| 3x
E|---------------------------------------------------------------------------|
   You go straight down what's the matter, don't you 
   trust me? I only want it on the
   way down In a bad way
F               G
Is the backseat all mine?

e|---------------------------------------------------------------------------|
B|---------------------------------------------------------------------------|
G|---------------------------------------------------------------------------|
D|------10------10------5-------5--------------------------------------------|
A|--8-8---8-7-7----7-3-3--3-2-2---2------------------------------------------| 3x
E|---------------------------------------------------------------------------|
    Way down See a lady with the 
    poodle It's the color of 
    tomato In a bad way
F               G
Is the backseat all mine?

Am F 4x
Am F C F Am F C F Am F C F Am F C

e|---------------------------------------------------------------------------|
B|---------------------------------------------------------------------------|
G|---------------------------------------------------------------------------|
D|------10------10------5-------5--------------------------------------------|
A|--8-8---8-7-7----7-3-3--3-2-2---2------------------------------------------| 3x
E|---------------------------------------------------------------------------|
   You go straight down what's the matter, don't you 
   trust me? I only want it on the
   way down In a bad way
F               G
Is the backseat all mine?

e|---------------------------------------------------------------------------|
B|---------------------------------------------------------------------------|
G|---------------------------------------------------------------------------|
D|------10------10------5-------5--------------------------------------------|
A|--8-8---8-7-7----7-3-3--3-2-2---2------------------------------------------| 3x
E|---------------------------------------------------------------------------|
    Way down See a lady with the 
    poodle It's the color of 
    tomato In a bad way
F               G
Is the backseat all mine?

Am F Am
Suggest correction
Creating personal tab
Creating personal tab
You can edit any tab online and save it as your Personal.

You can edit, replace or remove any tab part or add personal notes – all changes will be seen only by you.

Personal tabs can be accessed anytime from any device, even offline.
Learn more »
Give kudos to tab author, rate the tab!
1 2 3 4 5
comments
print report bad tab
guest
You may want to rate the tab now too:
select rating
Wanna post a correction for this tab? Suggest correction