Oops, an error
Loading. Please wait.

Animus Vox intro bass

5,087 views 6 this week
2 commentsread comments
1 2 3 4 5
x 7
add to favorites
×
Save as Personal and add changes to this tab that will be seen only by you. Learn more ›
×
You can save this tab as Personal to edit and correct it or add notes. All changes will be seen only by you. Learn more »
launch autoscroll
font size
0
reset
guitar tuner
edit
Autoscroll
slow
fast
+/-
esc
set tempo
stop
Difficulty
(R) Repeat to beggining

do this until the big flush comes and stop especially when the big bass comes

G:/--------------------------------------------------------------|
D:/--------------------------------------------------------------|
A:/-------------------------3-33-33-33-35-55-55-55--R------------|
E:/-3-33-33-33-31-11-11-11-1-------------------------------------|

            
            
Suggest correction
Creating personal tab
Creating personal tab
You can edit any tab online and save it as your Personal.

You can edit, replace or remove any tab part or add personal notes – all changes will be seen only by you.

Personal tabs can be accessed anytime from any device, even offline.
Learn more »
comments
print report bad tab
2 comments total.
+1 reply
bassisttt 10 Jun 29, 2013 06:25 AM

This is right for me:

G:/--------------------------------------------------------------|
D:/--------------------------------------------------------------|
A:/-------------------------11-11-11-11-11-11-11-11-13-13-13-13-13-13-13-13------------|
E:/-11-11-11-11-11-11-11-11-9-9-9-9-9-9-9-9-------------------------------------|

0 reply
jay3213 185 Jun 29, 2015 11:46 AM

This is so off. Bassisttt's tab is more correct.

guest
Wanna post a correction for this tab? Suggest correction