Oops, an error
Loading. Please wait.

How To Be Eaten By A Woman Tab

version 1
version 1

Solo

Whole song

796 views 1 this week
no commentswrite comment
1 2 3 4 5
excellent!
x 2
add to favorites
launch autoscroll
font size
0
reset
how to read this tab
guitar tuner
Tab Pro tools
  • play this tab
  • loop segment
  • change instrument
  • show fretboard
  • metronome
Autoscroll
slow
fast
+/-
esc
set tempo
stop
Contributor
Difficulty
intermediate
-------------------------------------------------------------------------------
                             HOW TO BE EATEN BY A WOMAN - The Glitch Mob
-------------------------------------------------------------------------------
Tabbed by: Seismatters

Of course I know this by the amazing Glitch Mob from the 3rd trailer for The Amazing
Spider-Man. There's no complete tab yet so I thought I'd give it a crack.

Tuning: Standard E

YouTube video for reference: http://goo.gl/IrOGA

Part I (0:00-0:40):
e|-7-----------7-----------7-----------7-------------------------------------|
B|---------------------------------------------------------------------------|
G|---------------------------------------------------------------------------|
D|---------------------------------------------------------------------------|
A|-2-/9-\2-/9-\2-/9-\2-/9-\2-/9-\2-/9-\2-------------------------------------|
E|---------------------------------------------------------------------------|

Main Riff (0:40):
e|---------------------------------------------------------------------------|
B|---------------------------------------------------------------------------|
G|-6--4---4-6-7-6-5--2-4-6--4---4-6-7-9-7--6-4---6--4---4-6-7-6-5--2-4-------|
D|------4-----------4---------4----------------4------4----------------------|
A|---------------------------------------------------------------------------|
E|---------------------------------------------------------------------------|

e|---------------------------------------------------------------------------|
B|---------------------10-12-------------------------------------------------|
G|-6--4--6-7-6--7-9-11-------------------------------------------------------|
D|---------------------------------------------------------------------------|
A|---------------------------------------------------------------------------|
E|---------------------------------------------------------------------------|

Part III (1:01-1:21)
e|-------------------------------------------------------------------------------|
B|-------------------------------------------------------------------------------|
G|-------------------------------------------------------------------------------|
D|-------------------------------------------------------------------------------|
A|-0-2-2-2-0-2-2-2-2-0-2-2-2-0-2-2-2-2-0-2-2-2-----------------------------------|
E|-------------------------------------------------------------------------------|

Part 3.5 (1:21-1:40) [Play with Part III Riff]
e|-10-/14--------10-12-10-\7-------------------------------------------------|
B|---------------------------------------------------------------------------|
G|---------------------------------------------------------------------------|
D|---------------------------------------------------------------------------|
A|---------------------------------------------------------------------------|
E|---------------------------------------------------------------------------|

Part 3.75 (1:51-2:01) [Play with Part III Riff]
e|-7-10------10-12-----12-14-----14-7----------------------------------------|
B|---------------------------------------------------------------------------|
G|---------------------------------------------------------------------------|
D|---------------------------------------------------------------------------|
A|---------------------------------------------------------------------------|
E|---------------------------------------------------------------------------|

OPTIONAL CHORDS TIME FOR CHORUS, YAY!!!!!!:
If you want to try and give the main riff more "oomph" during (2:01-2:21),
play the following chord progression instead of (or with) the main riff;

C#sus2 Bsus2 F#m Bsus2 C#sus2 Dsus2 C#sus2 Bsus2 F#m Am Bm
C#sus2 Bsus2 F#m Bsus2 C#sus2 Dsus2 Esus2 Dsus2 C#sus2 Bsus2 F#m
C#sus2 Bsus2 F#m Bsus2 C#sus2 Dsus2 C#sus2 Bsus2 F#m Am Bm
C#sus2 Bsus2 C#sus2 Dsus2 C#sus2 Dsus2 Esus2 F#sus2 Am Bm

Part IV (2:22-3:00):
e|---------------------------------------------------------------------------|
B|---------------------------------------------------------------------------|
G|---------------------------------------------------------------------------|
D|-9-9--9--9-9---9-9--9--9-9-------------------------------------------------|
A|---------------------------------------------------------------------------|
E|-------------7-------------7-----------------------------------------------|

Part 4.5 (2:29-2:31) [Play with Part IV]:
e|---3--------5-7------------------------------------------------------------|
B|-7----3-7------------------------------------------------------------------|
G|---------------------------------------------------------------------------|
D|---------------------------------------------------------------------------|
A|---------------------------------------------------------------------------|
E|---------------------------------------------------------------------------|

Part 4.75 (2:40-3:00) [Play with Part 4]:
e|---10-9--10-5-7------------------------------------------------------------|
B|-7------7------------------------------------------------------------------|
G|---------------------------------------------------------------------------|
D|---------------------------------------------------------------------------|
A|---------------------------------------------------------------------------|
E|---------------------------------------------------------------------------|

Part V (3:20-3:40):
e|---------------------------------------------------------------------------|
B|---------------------------------------------------------------------------|
G|---------------------------------------------------------------------------|
D|-12-12-9-9-7-7-9-9-7-9-0-0-4-4---------------------------------------------|
A|-------------------------------2-2--0---0-2--------------------------------|
E|--------------------------------------2------------------------------------|

Other Main Part (3:40-4:00)
e|---------------------------------------------------------------------------|
B|---------------------------------------------------------------------------|
G|-----------4--4------------------------------------------------------------|
D|---------------------------7-9---------------------------------------------|
A|-2-2-2-2----2---2-4-5-7--9-------------------------------------------------|
E|---------------------------------------------------------------------------|

MORE OPTIONAL CHORDS TIMES, YAAAH OKAY!!!;
Another way of playing this part for more "oomph" is the following:

Bsus2 C#sus2 Dsus2 Esus2 F#sus2 F#m Am

(4:00-4:20) MIX THE MAIN PARTS TOGETHER, WOOOOO!

Final Part (5:07-5:59)
e|---3----------------------3---------------------------------------------------|
B|-0--0-2---3--3-2--2-0---0---0--2---3--3--5--7---------------------------------|
G|-----------------2------------------------------------------------------------|
D|--------4------------------------4--------------------------------------------|
A|------------------------------------------------------------------------------|
E|------------------------------------------------------------------------------|
************************************

| /   slide up
| \   slide down
| h   hammer-on
| p   pull-off
| ~   vibrato
| +   harmonic
| x   Mute note
| b   Bend
| pb  Pre-bend
| br  Bend release
| pbr Pre-bend release
| brb Bend release bend

************************************
comments
We did not receive enough feedback on this tab! Please rate:
print report bad tab
1 2 3 4 5
I want to post or [tab]
guest
You may want to rate the tab now too:
select rating
Please do not post tabs as comments. Select "correction" instead!