Oops, an error
Loading. Please wait.

Back In Power Tab

248 views 1 this week
no commentswrite comment
1 2 3 4 5
please rate
add to favorites
launch autoscroll
font size
0
reset
how to read this tab
guitar tuner
Autoscroll
slow
fast
+/-
esc
set tempo
stop
Help us to improve Ultimate-Guitar.com Take our survey!
×
Author
Difficulty
intermediate
the glitterati - back in power


intro:
lead guitar:           x4
e|----------------------|-----------------------------------|
B|-4^\/-4^\/-4^\/-4^\/--|-----------------------------------|
G|----------------------|-----------16^\/-16^\/-16^\/-16^\/-|
D|----------------------|-----------------------------------|
A|----------------------|-----------------------------------|
E|----------------------|-0//2//14--------------------------|
rhythm guitar:                             x2            x2
e|-------------------------------------------|--------------|
B|-------------------------------------------|--------------|
G|-4-44-4444-4-44-4444-2-22-2222-------------|-44--4-44-----|
D|-4-44-4444-4-44-4444-2-22-2222-2-22-2222---|-44--3-33-----|
A|-2-22-2222-2-22-2222-0-00-0000-2-22-2222---|-22--2-22-----|
E|-------------------------------0-00-0000---|--------------|


verse:
e|----------------------------------------------------------|
B|----------------------------------------------------------|
G|-4~---2~--------4-44-4444-4-44-4444-2-22-2222-------------|
D|-4~---2~---2~---4-44-4444-4-44-4444-2-22-2222-2-22-2222---|
A|-2~---0~---2~---2-22-2222-2-22-2222-0-00-0000-2-22-2222---|
E|-----------0~---------------------------------0-00-0000---|


pre chorus:
rhythm guitar:
e|----------|
B|----------|
G|-44--4-44-|
D|-44--3-33-|
A|-22--2-22-|
E|----------|


chorus:
rhythm guitar:                             x2
e|------------------------------------------------------|
B|------------------------------------------------------|
G|-4-4-4444--6-6-6666--7-7-7777--9-9-9999---------------|
D|-4-4-4444--6-6-6666--7-7-7777--9-9-9999---------------|
A|-2-2-2222--4-4-4444--5-5-5555--7-7-7777---------------|
E|------------------------------------------------------|
lead guitar:                               x2
e|------------------------------------------------------|
B|------------------------------------------------------|
G|-4~--7-4-6~--9-6-7~--11-9-9~--11^\/-9-7-4-------------|
D|------------------------------------------------------|
A|------------------------------------------------------|
E|------------------------------------------------------|


Verse:
rhythm guitar:
e|----------------------------------------------------------|
B|----------------------------------------------------------|
G|(for 1st half)---44--4-44---44--4-44--2-22-2222-----------|
D|-(bass only)-----44--3-33---44--3-33--2-22-2222-2-22-2222-|
A|-----------------22--2-22---22--2-22--0-00-0000-2-22-2222-|
E|------------------------------------------------0-00-0000-|
lead guitar:           x4
e|-----------------------|----------------------------------|
B|-4^\/-4^\/-4^\/-4^\/---|----------------------------------|
G|-----------------------|--16^\/-16^\/-16^\/-16^\/-\\4-----|
D|-----------------------|----------------------------------|
A|-----------------------|----------------------------------|
E|-----------------------|----------------------------------|


pre chorus:
rhythm guitar:
e|----------|
B|----------|
G|-44--4-44-|
D|-44--3-33-|
A|-22--2-22-|
E|----------|

chorus:
rhythm guitar:                             x2
e|------------------------------------------------------|
B|------------------------------------------------------|
G|-4-4-4444--6-6-6666--7-7-7777--9-9-9999---------------|
D|-4-4-4444--6-6-6666--7-7-7777--9-9-9999---------------|
A|-2-2-2222--4-4-4444--5-5-5555--7-7-7777---------------|
E|------------------------------------------------------|
lead guitar:                               x2
e|------------------------------------------------------|
B|------------------------------------------------------|
G|-4~--7-4-6~--9-6-7~--11-9-9~--11^\/-9-7-4-------------|
D|------------------------------------------------------|
A|------------------------------------------------------|
E|------------------------------------------------------|

bridge:
rhythm guitar:          x2
e|------------------------|------------------------------|
B|------------------------|------------------------------|
G|--------------------2-2-|-7~--2~------2~---------------|
D|-2-44-2-4-2-4-2-4-2-2-2-|-7~--2~--4~--2~---------------|
A|-2-44-2-4-2-4-2-4-2-0-0-|-5~--0~--4~--0~---------------|
E|-0-22-0-2-0-2-0-2-0-----|---------2~-------------------|
(repeat but with bass instead for first part)
lead guitar:    x2
e|----------------|
B|----------------|
G|-7~-9~-11~-14~--|
D|----------------|
A|----------------|
E|----------------|

pre chorus:
rhythm guitar:
e|----------|
B|----------|
G|-44--4-44-|
D|-44--3-33-|
A|-22--2-22-|
E|----------|
lead guitar:
e|------------------------------|
B|------------------------------|
G|--16^\/-16^\/-16^\/-16^\/-\\4-|
D|------------------------------|
A|------------------------------|
E|------------------------------|


chorus:
rhythm guitar:                             x2
e|------------------------------------------------------|
B|------------------------------------------------------|
G|-4-4-4444--6-6-6666--7-7-7777--9-9-9999---------------|
D|-4-4-4444--6-6-6666--7-7-7777--9-9-9999---------------|
A|-2-2-2222--4-4-4444--5-5-5555--7-7-7777---------------|
E|------------------------------------------------------|
lead guitar:                               x2
e|------------------------------------------------------|
B|------------------------------------------------------|
G|-4~--7-4-6~--9-6-7~--11-9-9~--11^\/-9-7-4-------------|
D|------------------------------------------------------|
A|------------------------------------------------------|
E|------------------------------------------------------|

last chorus, guitar solo
lead guitar:
e|-------------17^--------------17^^--------------------|
B|-17^\/-15---------17^\/-15----------------------------|
G|----------16---------------16-------------------------|
D|------------------------------------------------------|
A|------------------------------------------------------|
E|------------------------------------------------------|

e|-----------------15--------------------15^\/----------|
B|-17^\/-15----17^---17-15-----15h17-15~----------------|
G|----------16-------------16-------------------14------|
D|------------------------------------------------------|
A|------------------------------------------------------|
E|------------------------------------------------------|

e|-------------17^^-------------17-15-17-19-------------|
B|-17^\/-15---------17^\/-15----------------------------|
G|----------16---------------16-------------------------|
D|------------------------------------------------------|
A|------------------------------------------------------|
E|------------------------------------------------------|

e|----15------------------------------------------------------|
B|-17^----17\/-15~--------------------------------------------|
G|-----------------14h16-14h16----16^\/-16^\/-16^\/-16^\/-\\4-|
D|------------------------------------------------------------|
A|------------------------------------------------------------|
E|------------------------------------------------------------|


end:
e|--------|
B|--------|
G|--------|
D|-99\\---|
A|-99\\---|
E|-77\\---|


lyrics:

I want a film star
I'm on the guest list
I want a sex life
I want a death wish
I want it all
I want it now
I wanna do it again
Again

We got sex and drugs and friends up above

We can stay up, talk for hours
It's ok, we're back in power
If we don't wake up
Sleep for hours
It's ok, we're back in power

Got a big car,
I'm on the rich list
I've got a love life
I've got a death wish
I want it all
I want it now
I want to do it again
Again

We got sex and drugs and friends up above

We can stay up, talk for hours
It's ok, we're back in power
If we don't wake up
Sleep for hours
It's ok, we're back in power

I can't ever be out of my head
It's all that I can do
It's easy
I won't ever be out of my head.
It's all that I can do.
It's easy.

We can stay up, talk for hours
It's ok, we're back in power
If we don't wake up
Sleep for hours
It's ok, we're back in power

We can stay up, talk for hours
It's ok, we're back in power
If we don't wake up
Sleep for hours
It's ok, we're back in power
Suggest correction
What's this?
You can suggest a correction to this tab. Community and Mods will review your correction and vote to approve or reject it.
comments
We did not receive enough feedback on this tab! Please rate:
print report bad tab
1 2 3 4 5
guest
You may want to rate the tab now too:
select rating
Please do not post tabs as comments. Select "correction" instead!