Oops, an error
Loading. Please wait.

Ambulance Tab

557 views 1 this week
no commentswrite comment
1 2 3 4 5
please rate
add to favorites
launch autoscroll
font size
0
reset
how to read this tab
guitar tuner
Tab Pro tools
  • play this tab
  • loop segment
  • change instrument
  • show fretboard
  • metronome
Autoscroll
slow
fast
+/-
esc
set tempo
stop
Contributor
-------------------------------------------------------------------------------
                             Ambulance by The Gloria Record
-------------------------------------------------------------------------------
Tabbed by: Ad*Astra

Tuning: Standard

This sounded pretty correct to me, so this is how I play it. It's in 3/4 time.

Let all notes ring. I recommend bending your fret hand's thumb over the top of the neck 
fret the notes on the 9th fret of the low E and A strings.


Intro/Verse:

|-------0-----0----|-------0-----0----|-------0-----0----|-------0-----0------|
|----------------9-|----------------9-|----------------9-|----------------9---|
|----8--9-----9----|----8--9-----9----|----8--9-----9----|----8--9-----9------|
|-9--------9-------|-9--------9-------|-7--------7-------|-7--------7---------|
|------------------|------------------|------------------|--------------------|
|------------------|------------------|------------------|--------------------|


|-------0-----0----|-------0-----0----|
|----------------9-|----------------9-|
|----8--9-----9----|----8--9-----9----|
|-6--------6-------|-6--------6-------|
|------------------|------------------|
|------------------|------------------|


|-------0-----0----|-------0-----0----|-------0-----0----|-------0-----0----|
|----------------9-|----------------9-|----------------9-|----------------9-|
|----8--9-----9----|----8--9-----9----|----8--9-----9----|----8--9-----9----|
|------------------|------------------|------------------|------------------|
|-7--------7-------|------------------|------------------|------------------|
|------------------|-7--------7-------|-9--------9-------|-0--------0-------|


|-------0-----0----|--------7-------------|-------0-----0----|--------7-------------|
|------------------|-------(9)------9-----|------------------|-------(9)------9-----|
|----8--9-----9--8-|----8-------8--(9)--9-|----8--9-----9--8-|----8-------8--(9)--9-|
|------------------|----------------------|------------------|----------------------|
|-0--------0-------|-0--------------------|-0--------0-------|-0--------------------|
|------------------|----------------------|------------------|----------------------|


Just before the break in between verses, around 2:10, I play:

|-0~---------------|
|-9~---------------|
|-9~---------------|
|-7~---------------|
|------------------|
|------------------|


Interlude:

|--------------7-----|-------0-----0-------|
|-------9-----(9)----|---------------------|
|----8--9----------9-|----8--9-----9--8----|
|-9--------9---------|-9--------9----------|
|--------------------|---------------------|
|--------------------|---------------------|


Outro:

|-------0-----0----|-------0-----0----|-------0-----0----|-------0-----0-----|
|----------------9-|----------------9-|----------------9-|----------------9--|
|----8--9-----9----|----8--9-----9----|----8--9-----9----|----8--9-----9-----|
|-9--------9-------|-9--------9-------|-7--------7-------|-7--------7--------|
|------------------|------------------|------------------|-------------------|
|------------------|------------------|------------------|-------------------|

|-------0-----0----|-------0-----0----|-------0-----0----|-------0-----0------|
|----------------9-|----------------9-|----------------9-|----------------9---|
|----8--9-----9----|----8--9-----9----|----8--9-----9----|----8--9-----9------|
|-6--------6-------|-6--------6-------|------------------|--------------------|
|------------------|------------------|-7--------7-------|-9--------9---------|
|------------------|------------------|------------------|--------------------|


End note after silence, around 6:35:

|-0~---------------|
|-9~---------------|
|-9~---------------|
|-9~---------------|
|------------------|
|------------------|
comments
We did not receive enough feedback on this tab! Please rate:
print report bad tab
1 2 3 4 5
I want to post or [tab]
guest
You may want to rate the tab now too:
select rating
Please do not post tabs as comments. Select "correction" instead!